Oops, an error
Loading. Please wait.

What Ive Done Bass Tab

version 1
version 1
137,789 views 30 this week
25 commentsread comments
1 2 3 4 5
excellent!
x 77
add to favorites
launch autoscroll
font size
0
reset
guitar tuner
Autoscroll
slow
fast
+/-
esc
set tempo
stop
Help us to improve Ultimate-Guitar.com Take our survey!
×
Difficulty
novice
Intro(starts with bass drum)
G|--------------------------------|
D|--------------------------------|
A|--------1---------------3-------|
E|3---------------1---------------|

G|--------------------------------|
D|--------------------------------|  2x
A|--------11111111--------33333333|
E|33333333--------11111111--------|

G|----------------|
D|----------------|
A|----------------|
E|3---------------|

1.Vers
G|--------------------------------|
D|--------------------------------|   2x
A|--------1-----------------------| 
E|3---------------1---------------|

G|--------------------------------|
D|--------------------------------|
A|6-------------------------------|
E|----------------3---------------|

1.Chorus
G|--------------------------------|
D|--------------------------------|  2x
A|--------11111111--------33333333|
E|33333333--------11111111--------|

2.Vers
G|--------------------------------|
D|--------------------------------|   2x
A|--------1-----------------------| 
E|3---------------1---------------|

G|--------------------------------|
D|--------------------------------|
A|6-------------------------------|
E|----------------3---------------|

2.Chorus
G|--------------------------------|
D|--------------------------------| 
A|--------11111111--------33333333|
E|33333333--------11111111--------|

G|--------------------------------|
D|--------------------------------|  
A|--------11111111--------33335555|
E|33333333--------11111111--------|

G|--------|
D|--------|
A|66666666|
E|--------|

Bridge
G|--------------------------------|
D|--------------------------------| 
A|--------11111111--------33333333|
E|33333333--------11111111--------|

G|----------------------------------------|
D|----------------------------------------| 
A|--------11111111--------3333555566668888|
E|33333333--------11111111----------------|

3.Chorus (only guitar, vocals, drums)
G|--------------------------------|
D|--------------------------------|  
A|--------------------------------|
E|3-------------------------------|

G|--------------------------------|
D|--------------------------------|  
A|--------------------------------|
E|--------------------------------|

4.Chorus
G|--------------------------------|
D|--------------------------------|  4x
A|--------11111111--------33333333|
E|33333333--------11111111--------|

Ending
G|---------------|
D|---------------|
A|---------------|
E|3--------------|

It´s pretty easy, but this song is great! Enjoy it!
Suggest correction
comments
print report bad tab
25 comments total. Showing first comments.
0 reply
MetalBassist93 345 wrote on April 2 2007, 03:57 pm

great tab! *5 stars*

0 reply
Crimzaelus 10 wrote on April 3 2007, 10:11 pm

Thanks man.

+2 reply
mcr4444 10 wrote on April 5 2007, 08:09 am

i think on the part where he says "so let mercy come" just before the chorus sounds more like this...
G|---------------------------|
D|1------------3-------------|
A|---------------------------|
E|---------------------------|
or you can play it as 6th then 8th fret on A if you want...
thanks for the tab =]

guest
You may want to rate the tab now too:
select rating
Wanna post a correction for this tab? Suggest correction