Oops, an error
Loading. Please wait.

What Ive Done Tab

version 1
version 1

Whole song

Video

617,335 views 267 this week
27 commentsread comments
1 2 3 4 5
x 49
add to favorites
launch autoscroll
font size
0
reset
how to read this tab
guitar tuner
Autoscroll
slow
fast
+/-
esc
set tempo
stop
Help us to improve Ultimate-Guitar.com Take our survey!
×
Author
Tuning
C# G# C# F# A# D#
Artist   - Linkin Park
Song     - What I´ve Done
Album    - Minutes to Midnight
Tabber   - Xero-P
Tunning  - Drop D, down ½ step:
           C#, G#, C#, F#, A#, D#

Ésta es la primera versión Tab del primer single de Minutes to Midnight. La canción que 
es de muy baja calidad así que no se distinguen bien las partes instrumentales. He hecho 
que he podido. Creo que está bien pero no a la perfección. Puntuadla por favor. Salu2. ^^

Rate Please!

[Intro] 

  (Piano Part)
D#|-------------------------|
A#|-------------------------|
F#|----8--898---8-----------|
C#|--6--6-----6-------------|
G#|-------------------------|
C#|----------------|--| x10-|


[Chorus]

  Guitar 1
D#|--------------------------------------------------------------------------------|
A#|--------------------------------------------------------------------------------|
F#|----------------------------------------------------------6-6-6-6-6-6-6-6-------|
C#|-x-xx--6-6-6-6-6-6-6-6--9-9-9-9-9-9-9-9--4-4-4-4-4-4-4-4--6-6-6-6-6-6-6-6-------|
G#|-x-xx--6-6-6-6-6-6-6-6--9-9-9-9-9-9-9-9--4-4-4-4-4-4-4-4--4-4-4-4-4-4-4-4-------|
C#|-x-xx--6-6-6-6-6-6-6-6--9-9-9-9-9-9-9-9--4-4-4-4-4-4-4-4------------------|-----| x2

  Guitar 2
D#|----------------------------------------------------|
A#|----------------------------------------------------|
F#|-----------------------6----------------------------|
C#|-6-6-6-6-9-9-8-9-9-9-9---8-8-8-9-6-6-9-8---9--------|
G#|-6-6-6-6-6-6-6-6-6-6-6-6-6-6-6-6-6-6-6-6---6--------|
C#|----------------------------------------------|-----| x2

[Verse]

(No Guitar)
In this farewell... There is no blood... There is no alibi...
Cause I’ve drawn regret... From the truth... Of a thousand lies


[Pre-Chorus] 

  Part arranged for Guitar (But No Guitars in This Part)
D#|-------------------|
A#|-------------------|
F#|-------------------|
C#|--2------4---------|
G#|--2------4---------|
C#|--2------4---------|
So let mercy come... And wash away...


[Chorus]

  Guitar 1
D#|--------------------------------------------------------------------------------|
A#|--------------------------------------------------------------------------------|
F#|----------------------------------------------------------6-6-6-6-6-6-6-6-------|
C#|-x-xx--6-6-6-6-6-6-6-6--9-9-9-9-9-9-9-9--4-4-4-4-4-4-4-4--6-6-6-6-6-6-6-6-------|
G#|-x-xx--6-6-6-6-6-6-6-6--9-9-9-9-9-9-9-9--4-4-4-4-4-4-4-4--4-4-4-4-4-4-4-4-------|
C#|-x-xx--6-6-6-6-6-6-6-6--9-9-9-9-9-9-9-9--4-4-4-4-4-4-4-4------------------|-----| x2

  Guitar 2
D#|----------------------------------------------------|
A#|----------------------------------------------------|
F#|-----------------------6----------------------------|
C#|-6-6-6-6-9-9-8-9-9-9-9---8-8-8-9-6-6-9-8------------|
G#|-6-6-6-6-6-6-6-6-6-6-6-6-6-6-6-6-6-6-6-6------------|
C#|----------------------------------------------|-----| x2

What I’ve done...
I’ll face myself
To cross out What I’ve become
Erase myself And let go of
What I’ve done


[Verse 2]

(No Guitar)
Put to rest... What you thought of me...
While I clean this slate... With the hands... Of uncertainty...


[Pre-Chorus] 

  Part arranged for Guitar (But No Guitars in Here)
D#|-------------------|
A#|-------------------|
F#|-------------------|
C#|--2------4---------|
G#|--2------4---------|
C#|--2------4---------|
So let mercy come... And wash away...


[Chorus]

  Guitar 1
D#|---------------------------------------------------------------------|    |-------------------------------|
A#|---------------------------------------------------------------------|    |-------------------------------|
F#|-----------------------------------------------------6-6-6-6-6-6-6-6-|    |-------------9-9-9-9-111111----|
C#|--6-6-6-6-6-6-6-6--9-9-9-9-9-9-9-9--4-4-4-4-4-4-4-4--6-6-6-6-6-6-6-6-|    |-6-6-6-8-8-8-9-9-9-9-111111-6--|
G#|--6-6-6-6-6-6-6-6--9-9-9-9-9-9-9-9--4-4-4-4-4-4-4-4--4-4-4-4-4-4-4-4-|    |-6-6-6-8-8-8-7-7-7-7--9-9-9-6--|
C#|--6-6-6-6-6-6-6-6--9-9-9-9-9-9-9-9--4-4-4-4-4-4-4-4------------------| x2 |-6-6-6-8-8-8----------------6--|

  Guitar 2
D#|-------------------------------------------|    |------------------------------------|
A#|-------------------------------------------|    |------------------------------------|
F#|-----------------------6-------------------|    |------------------------------------|
C#|-6-6-6-6-9-9-8-9-9-9-9---8-8-8-9-6-6-8-9-6-|    |-6-6-6-6-8-8-8-8-9-9-9-9-11111111---|
G#|-6-6-6-6-6-6-6-6-6-6-6-6-6-6-6-6-6-6-6-6-6-|    |-6-6-6-6-6-6-6-6-6-6-6-6--9-9-9-9---|
C#|-------------------------------------------| x2 |------------------------------------|

What I’ve done...
I’ll face myself
To cross out What I’ve become
Erase myself And let go of
Whaaaaaaaaaaat I’ve doooooooooooooooooone


[Solo]

  Guitar 1
D#|---------------------------------------------------------------------|    |-------------------------------|
A#|---------------------------------------------------------------------|    |-------------------------------|
F#|-----------------------------------------------------6-6-6-6-6-6-6-6-|    |-------------9-9-9-9-111111----|
C#|--6-6-6-6-6-6-6-6--9-9-9-9-9-9-9-9--4-4-4-4-4-4-4-4--6-6-6-6-6-6-6-6-|    |-6-6-6-8-8-8-9-9-9-9-111111-6--|
G#|--6-6-6-6-6-6-6-6--9-9-9-9-9-9-9-9--4-4-4-4-4-4-4-4--4-4-4-4-4-4-4-4-|    |-6-6-6-8-8-8-7-7-7-7--9-9-9-6--|
C#|--6-6-6-6-6-6-6-6--9-9-9-9-9-9-9-9--4-4-4-4-4-4-4-4------------------| x2 |-6-6-6-8-8-8----------------6--|

  Guitar 2
D#|-------------------------------------------|    |------------------------------------|
A#|-------------------------------------------|    |------------------------------------|
F#|-----------------------6-------------------|    |------------------------------------|
C#|-6-6-6-6-9-9-8-9-9-9-9---8-8-8-9-6-6-8-9-6-|    |-6-6-6-6-8-8-8-8-9-9-9-9-11111111---|
G#|-6-6-6-6-6-6-6-6-6-6-6-6-6-6-6-6-6-6-6-6-6-|    |-6-6-6-6-6-6-6-6-6-6-6-6--9-9-9-9---|
C#|-------------------------------------------| x2 |------------------------------------|


[Solo]
(Guitar)

D#|------------------------------------------------------------------|
A#|-----------------------12--12--12----------------------11---------|
F#|---11--11--11--11--13--------------11--11--11--11--13------13--11-|
C#|-13--13------13--13--13------13--13--13------13--13--13--13--13---|
G#|------------------------------------------------------------------|
C#|------------------------------------------------------------------|x2

D#|-----------------------------|
A#|-------12--------------------|
F#|---13------13--11--13--------|
C#|-13--13--13--13--13--13------|
G#|-----------------------------|
C#|-----------------------------|
For whaaaaaaaaaaaaat I’ve dooooooooooooooooooone


[Chorus]

  Guitar 1 (palm mute)
D#|---------------------------------------------------------------------------|
A#|---------------------------------------------------------------------------|
F#|-----------------------------------------------------6-6-6-6-6-6-6-6-------|
C#|--6-6-6-6-6-6-6-6--9-9-9-9-9-9-9-9--4-4-4-4-4-4-4-4--6-6-6-6-6-6-6-6-------|
G#|--6-6-6-6-6-6-6-6--9-9-9-9-9-9-9-9--4-4-4-4-4-4-4-4--4-4-4-4-4-4-4-4-------|
C#|--6-6-6-6-6-6-6-6--9-9-9-9-9-9-9-9--4-4-4-4-4-4-4-4------------------|-----| x2
     x x x x x x x x  x x x x x x x x  x x x x x x x x  x x x x x x x x

  Guitar 2
D#|----------------------------------------------------|
A#|----------------------------------------------------|
F#|-----------------------6----------------------------|
C#|-6-6-6-6-9-9-8-9-9-9-9---8-8-8-9-6-6-9-8------------|
G#|-6-6-6-6-6-6-6-6-6-6-6-6-6-6-6-6-6-6-6-6------------|
C#|----------------------------------------------|-----| x2

I’ll start again And whatever thing May come
Today this ends I’m forgiving
What I’ve done


[Chorus]

  Guitar 1
D#|---------------------------------------------------------------------------|
A#|---------------------------------------------------------------------------|
F#|-----------------------------------------------------6-6-6-6-6-6-6-6-------|
C#|--6-6-6-6-6-6-6-6--9-9-9-9-9-9-9-9--4-4-4-4-4-4-4-4--6-6-6-6-6-6-6-6-------|
G#|--6-6-6-6-6-6-6-6--9-9-9-9-9-9-9-9--4-4-4-4-4-4-4-4--4-4-4-4-4-4-4-4-------|
C#|--6-6-6-6-6-6-6-6--9-9-9-9-9-9-9-9--4-4-4-4-4-4-4-4------------------|-----| x4

  Guitar 2
D#|----------------------------------------------------|
A#|----------------------------------------------------|
F#|-----------------------6----------------------------|
C#|-6-6-6-6-9-9-8-9-9-9-9---8-8-8-9-6-6-9-8------------|
G#|-6-6-6-6-6-6-6-6-6-6-6-6-6-6-6-6-6-6-6-6------------|
C#|----------------------------------------------|-----| x4
What I’ve done...
I’ll face myself
To cross out What I’ve become
Erase myself And let go of
Whaaaaaaaaaaat I’ve doooooooooooooooooone (nanana)
Whaaaaaaaaaaat I’ve doooooooooooooooooone (nanana)
I’m forgiving Whaaaaaaaaaaat I’ve doooooooooooooooooone (nanana)


[End]

D#|-----------|
A#|-----------|
F#|-----------|
C#|--6--------|
G#|--6--------|
C#|--6--------|


[Outro]

  Piano Part
D#|----------------------|
A#|----------------------|
F#|----8--898---8--------|
C#|--6--6-----6----------|
G#|----------------------|
C#|----------------|-----| x4
Suggest correction
comments
print report bad tab
27 comments total. Showing first comments.
0 reply
eltyr18 176 Apr 02, 2007 10:58 AM

Is this song on the new album, and where did you find it?

0 reply
Leggi 41 Apr 02, 2007 12:18 PM

that's wrong.. xD Why Db? Ever seen the video? It's only Drop D. So Guitar 2 in the chorus.. doesn't sound good, the solo.. eh, what? What version of the song have you heard? not anything like the song. guitar 1 is right, though it's played in Drop D. 2*

0 reply
lyingfromyou118 200 Apr 02, 2007 02:58 PM

Dude, Linkin Park always plays a half step down or lower (Don't Stay, etc.) with the low E down to C#(Db), so unless they changed for this album (which I haven't heard yet, so it's possible), it should be in this tuning.

guest
You may want to rate the tab now too:
select rating
Wanna post a correction for this tab? Suggest correction