Oops, an error
Loading. Please wait.

What Ive Done Tab

570,098 views 81 this week
101 commentsread comments
1 2 3 4 5
accurate
x 171
add to favorites
launch autoscroll
font size
0
reset
how to read this tab
guitar tuner
Tab Pro tools
  • play this tab
  • loop segment
  • change instrument
  • show fretboard
  • metronome
×
Best way to learn
"What Ive Done"
Autoscroll
slow
fast
+/-
esc
set tempo
stop
Contributor
Tuning
D A D G B E
Title: What Ive Done
Artist: Linkin Park
Album: Minutes To Midnight


Tuning: Drop D (D A D G B E) 


INTRO 

Piano Riff (Played Throughout the song)

E|--10-10-11-10-10-|
B|-8--8--------8---|
G|-----------------| 
D|-----------------| 
A|-----------------| 
D|-----------------|           

   G      Bb     F      C                                        
E|------|------|------|------|
B|------|------|------|------|  
G|------|------|-10---|-5----|  
D|-5----|-8----|-10---|-5----|             
A|-5----|-8----|-8----|-3----|             
D|-5----|-8----|------|------| 


CHORUS(1)

E|-------------------------|-------------------------|
B|-------------------------|-------------------------|
G|-------------------------|-------------------------|
D|-------------------------|-------------------------|  
A|-13-13-13-13-13-13-12-12-|-13-13-13-13-13-13-15-15-|
D|-------------------------|-------------------------|
                        
E|-------------------------|-------------------------|            |-------|
B|-------------------------|-------------------------|   Repeat   |-------|
G|-------------------------|-------------------------|   & then   |-------|
D|-------------------------|-------------------------|   end on:  |-------|
A|-12-12-12-12-12-12-12-12-|-10-10-10-10-10-10-12-12-|            |-13----|
D|-------------------------|-------------------------|            |-------|
                                
--BACKING CHORDS--
   G      Bb     F      C  
E|------|------|------|------|
B|------|------|------|------|  
G|------|------|------|------|  
D|-5----|-8----|-3----|-10---|   * play each chord 8x       
A|-5----|-8----|-3----|-10---|             
D|-5----|-8----|-3----|-10---|


VERSE 1 (Piano chords arranged for Guitar)

 (G, Bb, F, C) x2  


PRE CHORUS

   Eb     F
E|------|------|
B|------|------|  
G|------|------|  
D|-1----|-3----|             
A|-1----|-3----|            
D|-1----|-3----|
      

--REPEAT CHORUS(1)--


VERSE 2 (Piano chords arranged for Guitar)
 
 (Bb, F, C, G, B, F, C)


--REPEAT PRE CHORUS-- 


CHORUS(2)

E|-------------------------|-------------------------|
B|-------------------------|-------------------------|
G|-------------------------|-------------------------|
D|-------------------------|-------------------------|  
A|-13-13-13-13-13-13-12-12-|-13-13-13-13-13-13-15-15-|
D|-------------------------|-------------------------|
                        
E|-------------------------|-------------------------|            
B|-------------------------|-------------------------|   
G|-------------------------|-------------------------|   
D|-------------------------|-------------------------|   
A|-12-12-12-12-12-12-12-12-|-10-10-10-10-10-10-12-12-|            
D|-------------------------|-------------------------| 

E|-------------------------|-------------------------|
B|-------------------------|-------------------------|
G|-------------------------|-------------------------|
D|-------------------------|-------------------------|  
A|-13-13-13-13-13-13-12-12-|-13-13-13-13-13-13-15-15-|
D|-------------------------|-------------------------|
                        
E|-------------------------|-------------------------|            
B|-------------------------|-------------------------|   
G|-------------------------|-------------------------|   
D|-------------------------|-------------------------|   
A|-12-12-12-12-12-12-12-12-|-10-10-10-10-12-12-12-12-|            
D|-------------------------|-------------------------|

E|-------------------------|         
B|-------------------------|   
G|-------------------------|  
D|-------------------------|  
A|-13-13-13-13-15-15-15-15-|            
D|-------------------------|           


--BACKING CHORDS--
   G      Bb     F      C  
E|------|------|------|------|
B|------|------|------|------|  
G|------|------|------|------|  
D|-5----|-8----|-3----|-10---|   * play each chord 8x       
A|-5----|-8----|-3----|-10---|             
D|-5----|-8----|-3----|-10---|


BRIDGE (Part 1 - Solo)

Guitar 1
E|--------------------------------------|
B|--------------------------------------|
G|----------------------------12--15----|
D|-12-15-12-15p12-15p12-15p12-----------|      
A|--------------------------------------|  
D|--------------------------------------|
                                                     x2
E|-------------------------------------------|
B|-------------------------------------------|
G|----------------------------12--14--12-----|
D|-12-15-12-15p12-15p12-15p12-------------15-|      
A|-------------------------------------------|  
D|-------------------------------------------|

E|-------------------------------|
B|-------------------------------|  
G|-12--15--12--------------12----|  
D|-------12--12--15p12-15--------|             
A|-------------------------------|             
D|-------------------------------| 

Guitar 2 (Backing)
E|-----------------|-----------------|-----------------|
B|-----------------|-----------------|-----------------|
G|-----------------|-----------------|-----------------|  
D|-5-5-5-5-5-5-5-5-|-8-8-8-8-8-8-8-8-|-3-3-3-3-3-3-3-3-|             
A|-5-5-5-5-5-5-5-5-|-8-8-8-8-8-8-8-8-|-3-3-3-3-3-3-3-3-|             
D|-5-5-5-5-5-5-5-5-|-8-8-8-8-8-8-8-8-|-3-3-3-3-3-3-3-3-|

E|-------------------------|          |-------------------------|----|
B|-------------------------| Repeat   |-------------------------|----|
G|-------------------------| & finish |-10-10-10-10-12-12-12-12-|----| 
D|-10-10-10-10-10-10-10-10-| with:    |-10-10-10-10-12-12-12-12-|-5--|  
A|-10-10-10-10-10-10-10-10-|          |-8--8--8--8--10-10-10-10-|-5--|     
D|-10-10-10-10-10-10-10-10-|          |-------------------------|-5--|


BRIDGE (Part 2) 

E|-------------------------|-------------------------|
B|-------------------------|-------------------------|
G|-------------------------|-------------------------|
D|-------------------------|-------------------------|  
A|-13-13-13-13-13-13-12-12-|-13-13-13-13-13-13-15-15-|
D|-------------------------|-------------------------|
                        
E|-------------------------|-------------------------|
B|-------------------------|-------------------------|
G|-------------------------|-------------------------|
D|-------------------------|-------------------------|
A|-12-12-12-12-12-12-12-12-|-10-10-10-10-12-12-12-12-|
D|-------------------------|-------------------------|

E|-------------------------|-------------------------|
B|-------------------------|-------------------------|
G|-------------------------|-------------------------|
D|-------------------------|-------------------------|  
A|-13-13-13-13-13-13-12-12-|-13-13-13-13-13-13-15-15-|
D|-------------------------|-------------------------|

E|-------------------------|-------------------------|
B|-------------------------|-------------------------|
G|-------------------------|-------------------------|
D|-------------------------|-------------------------|
A|-12-12-12-12-12-12-12-12-|-10-10-10-10-10-10-10-10-|
D|-------------------------|-------------------------|

E|-------------------------|
B|-------------------------|
G|-------------------------|
D|-------------------------|
A|-10-10-10-10-10-10-10-10-|
D|-------------------------|


--REPEAT CHORUS(1) TWICE & END WITH INTRO RIFF--
comments
print report bad tab
101 comments total. Showing first comments.
0 reply
Leggi wrote on April 3 2007, 04:30 am

Chorus lead sounds weird o.O
Other than that everything's right, I think.
Try version 3 and give me a comment please :)

0 reply
AFILEX wrote on April 3 2007, 07:28 am

dont know if u saw the chorus b4 i fixed it....but its fixed up now

0 reply
Leggi wrote on April 3 2007, 08:21 am

yes I saw the updated one.. sounds weird like I said, but just let other people see & rate.

I want to post or [tab]
guest
You may want to rate the tab now too:
select rating
Please do not post tabs as comments. Select "correction" instead!