Oops, an error
Loading. Please wait.

What Ive Done Tab

version 3
version 3

Whole song

Video

39,473 views 1 this week
13 commentsread comments
1 2 3 4 5
x 13
add to favorites
launch autoscroll
font size
0
reset
how to read this tab
guitar tuner
Autoscroll
slow
fast
+/-
esc
set tempo
stop
Help us to improve Ultimate-Guitar.com Take our survey!
×
Author
Difficulty
novice
Linkin Park - What I've Done off Minutes to Midnight (to be released may 15th).
Tuning (low to high): EADgbe (I think It's played in Drop D but it's able to be played 
Standard, too, and it's easier for the fingering.)
2 Guitars | Brad - Lead, Mike - Rhythm

Intro Brad - Lead

e|--only-|-------repeat--------|end-|
b|-first-|-------twice---------|-on-|             listen to song
g|-time--|---------------------|----|               for stumming
D|--x--x-|-8--7--8--10-7--5/7--|-8~~|let
A|--x--x-|-x--x--x--x--x--x-x--|-x~~|ring
E|--x--x-|-6--5--6--8--5--3/5--|-6~~|

Intro Mike - Rhythm

e|-only--|------repeat-twice---|end-|
b|-first-|---------------------|-on-|
g|-time--|----3-----5----------|----|
D|--x--x-|-5--3--3--5----------|-5~~|let
A|--x--x-|-5--1--3--3----------|-5~~|ring
E|--x--x-|-3-----1-------------|-3~~|

-------

Verse #1 - No guitar

-------

Chorus #1 - Brad - Lead (basically same as the intro)

e|--only------|--------repeat-------|end-|
b|--first-----|--------twice--------|-on-|             listen to song
g|--time------|---------------------|----|               for stumming
D|--x--x--x--x|-8--7--8--10-7--5/7--|-8~~|let
A|--x--x--x--x|-x--x--x--x--x--x-x--|-x~~|ring
E|--x--x--x--x|-6--5--6--8--5--3/5--|-6~~|

Chrous #1 - Mike - Rhythm (same as the intro, too)

e|--only------|------repeat-twice---|end-|
b|--first-----|---------------------|-on-|
g|--time------|----3-----5----------|----|
D|--x--x--x--x|-5--3--3--5----------|-5~~|let
A|--x--x--x--x|-5--1--3--3----------|-5~~|ring
E|--x--x--x--x|-3-----1-------------|-3~~|

-------

Verse #2 - No guitar

-------

Chorus #2 - Brad - Lead

e|-----repeat----------|-"pre-|
B|------twice----------|-solo"|
G|---------------------|------|
D|-8--7--8--10-7--5/7--|/8/10-|
A|-x--x--x--x--x--x-x--|-x-x--|
E|-6--5--6--8--5--3/5--|/6/8--|

Chrous #2 - Mike - Rhythm

e|---repeat twice------|"pre solo"|
B|---------------------|----------|
G|----3-----5----------|/7/8/10---|
D|-5--3--3--5----------|/7/8/10---|
A|-5--1--3--3----------|/5/6/8----|
E|-3-----1-------------|----------|

-------

Solo - Brad - Lead (not perfect but sounds good enough for a first try)

e|--------------------------------------------------------------------------------|
B|----6-6-6---8-11---6-6-6---8-10---6-6-6-8--11---6-6-6-6-8--11---6-8-10---11---8~|
G|--7-------7------7-------7------7-------------7---------------7--------7-----7--|
D|--------------------------------------------------------------------------------|
A|--------------------------------------------------------------------------------|
E|--------------------------------------------------------------------------------|

Solo - Mike - Rhythm

e|---repeat twice------|"after solo"|
B|---------------------|------------|
G|----3-----5----------|/7/8/10-----|
D|-5--3--3--5----------|/7/8/10-----|
A|-5--1--3--3----------|/5/6/8------|
E|-3-----1-------------|------------|

-------

Bridge - Mike - Rhythm (only one guitar playing)

e|-----repeat--------|
B|------twice--------|
G|-------------------|
D|-8--7--8--10-7--5--|
A|-x--x--x--x--x--x--|
E|-6--5--6--8--5--3--|

-------

Chorus #3 - Brad - Lead

e|-----repeat------------------------|end|
B|------four times-------------------|on-|
G|-----------------------------------|---|
D|-8--7--8--10-7--5/7-(last note-----|5--|
A|-x--x--x--x--x--x-x--only the first|x--|
E|-6--5--6--8--5--3/5--three times)--|3--|

Chorus #3 - Mike - Rhythm

e|repeat four times----|end|
B|---------------------|on-|
G|----3-----5----------|---|
D|-5--3--3--5----------|5--|
A|-5--1--3--3----------|5--|
E|-3-----1-------------|3--|


| /  slide up
| ~ let ring
Suggest correction
comments
print report bad tab
13 comments total. Showing first comments.
+1 reply
Amitio 144 Apr 07, 2007 04:37 PM

Sounds pretty good!

-2 reply
minichibi 101 May 08, 2007 10:13 PM

intro bit sounds funny.

0 reply
Leggi 41 May 09, 2007 06:05 AM

In my opinion, it just sounds right, and not as thin as all the other versions. But.. say what you want^^

guest
You may want to rate the tab now too:
select rating
Wanna post a correction for this tab? Suggest correction