Oops, an error
Loading. Please wait.

What Ive Done Tab

version 4
version 4

Whole song

Video

21,993 views 3 this week
11 commentsread comments
1 2 3 4 5
accurate
x 10
add to favorites
launch autoscroll
font size
0
reset
how to read this tab
guitar tuner
Autoscroll
slow
fast
+/-
esc
set tempo
stop
Help us to improve Ultimate-Guitar.com Take our survey!
×
Author
Tabbers playing skills
advanced +
PLS LIKE OUR BAND FAN PAGE @ FACEBOOK -Arista(lucena) http://www.facebook.com/
pages/Arista-Lucena/226729694026830

INTRO/verse


main riff
e|-----10---10--10-11-10----10----10---10-11-10--------10----10---10-11-10---|
b|---------------------------------------------------------------------------|
g|--12----12--12--------12---12----12-------------12----12-----12------------|
d|---------------------------------------------------------------------------|
A|---------------------------------------------------------------------------|
E|---------------------------------------------------------------------------|
]
guitar2(PIANO)
e|-----------------------------------|
b|-----------------------------------|
g|-----------3~---------------5~-----|
d|-5~--------3~-------3~------5~-----|2X
A|-5~--------1~-------3~------3~-----|
E|-3~-----------------1~-------------|
then
guitar1

(i'm not yet sure of this)
e|--------------------------------------|
b|--------------------------------------|
g|--------------------------------------|
d|xx---------------------------555555---|
A|xx--555555-77-8888888-333333-333333---|
E|xx--333333-55-6666666-111111----------|


e|--------------------------------------|
b|--------------------------------------|
g|--------------------------------------|
d|---------------------------555555-----|
A|--555555-77-8888888-333333-333333-5~--|
E|--333333-55-6666666-111111--------3~--|
lead guitar
E|---------------------------------------------------|    |-------|
B|---------------------------------------------------|    |-------|
G|---------------------------------------------------|    |-------|
D|-888888--7-7--88888--10-10-7777777-5-5-5-5-5-5-7-7-| 2x |-8~----|
A|---------------------------------------------------|    |-------|
D|---------------------------------------------------|    |-------|


VERSE 1
Gm-Bb-F-C-2x(PIANO)

e|-----10---10--10-11-10----10----10---10-11-10--------10----10---10-11-10---|
b|---------------------------------------------------------------------------|
g|--12----12--12--------12---12----12-------------12----12-----12------------|
d|---------------------------------------------------------------------------|
A|---------------------------------------------------------------------------|
E|---------------------------------------------------------------------------|

ref
Guitar2
e|-xx-15//------xx-15//-----------------|
b|--------------------------------------|
g|--------------------------------------|
d|--------------------------------------|
A|--------------------------------------|
E|--------------------------------------|


 CHORUS-Gm-Bb-F-C-
guitar1
e|--------------------------------------|
b|--------------------------------------|
g|--------------------------------------|
d|xx---------------------------555555---|
A|xx--555555-77-8888888-333333-333333---|
E|xx--333333-55-6666666-111111----------|


e|--------------------------------------|
b|--------------------------------------|
g|--------------------------------------|
d|---------------------------555555-----|
A|--555555-77-8888888-333333-333333-5~--|
E|--333333-55-6666666-111111--------3~--|


lead guitar
E|---------------------------------------------------|    |-------|
B|---------------------------------------------------|    |-------|
G|---------------------------------------------------|    |-------|
D|-888888--7-7--88888--10-10-77777777-5-5-5-5-5-5-7-7| 2x |-8~----|
A|---------------------------------------------------|    |-------|
D|---------------------------------------------------|    |-------|

VERSE 2 Piano chords

----------------------------------------------------------------------------| Gm-Bb-F-C-G-B-F-C
e|-----10---10--10-11-10----10----10---10-11-10--------10----10---10-11-10--|
b|--------------------------------------------------------------------------|
g|--12----12--12--------12---12----12-------------12----12-----12-----------|
d|--------------------------------------------------------------------------|
A|--------------------------------------------------------------------------|
E|--------------------------------------------------------------------------|

Refrain-
ref
Guitar2
e|-xx-15//------xx-15//-----------------|
b|--------------------------------------|
g|--------------------------------------|
d|--------------------------------------|
A|--------------------------------------|
E|--------------------------------------|
 Eb-F
CHORUS--Gm-Bb-F-C-

e|--------------------------------------|
b|--------------------------------------|
g|--------------------------------------|
d|xx---------------------------555555---|
A|xx--555555-77-8888888-333333-333333---|
E|xx--333333-55-6666666-111111----------|


e|-------------------------------------------------|
b|-------------------------------------------------|
g|-------------------------------------------------|
d|---------------------------5555-77778888-101010--|
A|--555555-77-8888888-333333-3333-55556666-8-8-8---|
E|--333333-55-6666666-111111-----------------------|




lead guitar
e|---------------------------------------------------|    |----------|
b|---------------------------------------------------|    |----------|
g|---------------------------------------------------|    |----------|
d|-888888--7-7--88888--10-10-77777777-5-5-5-5-5-5-7-7| 2x |-8-10-12--|
A|---------------------------------------------------|    |----------|
E|---------------------------------------------------|    |----------|

BRIDGE Part 1 - Solo

Guitar 1
e|----------------3--66----------------3-5-3---------------|    
b|-3-6p3-6p3-6-----------3-6p3-6p3-6----------6-6----------|  
g|---------------------------------------------------------|    
d|---------------------------------------------------------|          
A|---------------------------------------------------------|    
e|---------------------------------------------------------|    


e|----------------3--66----------------3-5-3----3-6----3-3-|    
b|---6p3-6p3-6-----------3-6p3-6p3-6----------6-----6------|  
g|---------------------------------------------------------|    
d|---------------------------------------------------------|          
A|---------------------------------------------------------|    
e|---------------------------------------------------------| 

g2


e|--------------------------------------|
b|--------------------------------------|
g|--------------------------------------|
d|xx---------------------------555555---|
A|xx--555555-77-8888888-333333-333333---|
E|xx--333333-55-6666666-111111----------|


e|------------------------------------|
b|------------------------------------|
g|------------------------------------|
d|---------------------------5555555--|
A|--555555-77-8888888-333333-3333333--|
E|--333333-55-6666666-111111----------|
bridge-silence-Gm-Bb-F-C-
LESSEN THE VOLUME

then
guitar1
e|--------------------------------------------------|
b|--------------------------------------------------|
g|--------------------------------------------------|
d|--12121212-1414--------------10101010-55555-------|
A|--10101010-1212-888888-1010--8-8-8-8--33333-------|
E|----------------666666-8-8------------------------|


e|------------------------------------------------|
b|------------------------------------------------|
g|------------------------------------------------|
d|--12121212-1414--------------10101010-55555-----|
A|--10101010-1212-888888-1010--8-8-8-8--33333-----|
E|----------------666666-8-8----------------------|

lead guitar(ENTERS AT THE 2ND TIME)
E|---------------------------------------------------|    |-------|
B|---------------------------------------------------|    |-------|
G|---------------------------------------------------|    |-------|
D|-888888--7-7--88888--10-10-77777777-5-5-5-5-5-5-7-7| 2x |-8~----|
A|---------------------------------------------------|    |-------|
D|---------------------------------------------------|    |-------|

CHORUS-to-end-Gm-Bb-F-C-

guitar1
e|--------------------------------------------------|
b|--------------------------------------------------|
g|--------------------------------------------------|
d|--12121212-1414--------------10101010-55555-------|
A|--10101010-1212-888888-1010--8-8-8-8--33333-------|
E|----------------666666-8-8------------------------|


e|------------------------------------------------|
b|------------------------------------------------|
g|------------------------------------------------|
d|--12121212-1414--------------10101010-55555-----|
A|--10101010-1212-888888-1010--8-8-8-8--33333-----|
E|----------------666666-8-8----------------------|

lead guitar
E|---------------------------------------------------|    
B|---------------------------------------------------|  
G|---------------------------------------------------|    
D|-888888--7-7--88888--10-10-77777777-5-5-5-5-5-5-7-7| 2x 
A|---------------------------------------------------|    
D|---------------------------------------------------|   

e|-----------------------------------|
b|-----------------------------------|
g|-----------------------------------|
D|-77777777--55555555--5555555-------|
A|-----------------------------------|
E|-----------------------------------|

piano end~
e|-----10---10--10-11-10----10----10---10-11-10--------10------------|
b|-------------------------------------------------------------------|
g|--12----12--12--------12---12----12-------------12-----------------|
d|-------------------------------------------------------------------|
A|-------------------------------------------------------------------|
E|-------------------------------------------------------------------|


di me masyadong sure d2...wala p kasi ako nung cd nung kanta para aus..hehehe...cguro 
nkabili na me aus na aus na ito...heheh
hi to june anne..
hi lucena! vote me for president!

f_sario@yahoo.com
Suggest correction
comments
print report bad tab
11 comments total. Showing first comments.
0 reply
slimtim333 479 wrote on April 5 2007, 04:50 pm

You summarized all the tabs to a new one, including by bass tab. That sux -.-

0 reply
AFILEX 728 wrote on April 7 2007, 10:58 pm

wtf, uve just copied other ppls work (including mine), but made it worse, and put it all together >> obviously u must be retarded---

0 reply
doobidoo 5,808 wrote on April 8 2007, 08:10 am

??????????????????????..............hehehehehehhehehehehehehhehehehehhhhhhhhehehehehehehehehehehheheheh.................

guest
You may want to rate the tab now too:
select rating
Wanna post a correction for this tab? Suggest correction