Oops, an error
Loading. Please wait.
We have an official What Ive Done tab made by UG professional guitarists. Check out the tab »
×

What Ive Done Tab

version 5
version 5

Whole song

Video

84,252 views 12 this week
3 commentsread comments
1 2 3 4 5
x 5
add to favorites
launch autoscroll
font size
0
reset
how to read this tab
guitar tuner
backing track
0:00
0:00
×
Best way to learn
"What Ive Done"
Autoscroll
slow
fast
+/-
esc
set tempo
stop
Difficulty
intermediate
[Intro]
e|---10---10-11-10---10----10---10-11-10----10-|
B|-8----8----------8-----8----8-----------8----|
G|---------------------------------------------|
D|---------------------------------------------|
A|---------------------------------------------|
E|---------------------------------------------|

(play this continously through the whole song
But at the intro, you have play it ten times.
After the 2nd time you have to stroke [down stroke]
G A# F C chords with a second guitar.)

e|---10---10-11-10---10----10---10-11-10----10-|
B|-8----8----------8-----8----8-----------8----|
G|---------------------------------------------|
D|---------------------------------------------|
A|---------------------------------------------|
E|---------------------------------------------|
  G                   [A#]

e|---10---10-11-10---10----10---10-11-10----10-|
B|-8----8----------8-----8----8-----------8----|
G|---------------------------------------------|
D|---------------------------------------------|
A|---------------------------------------------|
E|---------------------------------------------|
  F                     C

(After that play this with the first guitar)

e|-----------------------------------------------------------------|
B|-----------------------------------------------------------------|
G|-3-3-3-3-3-3-2-2-3-3-3-3-3-3-5-5-2-2-2-2-2-2-2-2-0-0-0-0-0-0-2-2-|
D|-----------------------------------------------------------------|
A|-----------------------------------------------------------------|
E|-----------------------------------------------------------------|

(At the same time play this with the second guitar)(two times)

e|-x-x-x-x-x-x-x-x-x-x-x-x-x-x-x-x-x-x-x-x-x-x-x-x-x-x-x-x-x-x-x-x-|
B|-x-x-x-x-x-x-x-x-x-x-x-x-x-x-x-x-x-x-x-x-x-x-x-x-x-x-x-x-x-x-x-x-|
G|-x-x-x-x-x-x-x-x-x-x-x-x-x-x-x-x-x-x-x-x-x-x-x-x-x-x-x-x-x-x-x-x-|
D|-x-x-x-x-x-x-x-x-3-3-3-3-3-3-3-3-x-x-x-x-x-x-x-x-5-5-5-5-5-5-5-5-|
A|-5-5-5-5-5-5-5-5-1-1-1-1-1-1-1-1-3-3-3-3-3-3-3-3-3-3-3-3-3-3-3-3-|
E|-3-3-3-3-3-3-3-3-x-x-x-x-x-x-x-x-1-1-1-1-1-1-1-1-x-x-x-x-x-x-x-x-|
        G             B             F            C      

(You can also play the whole thing alone)

e|-x-x-x-x-x-x-x-x-x-x-x-x-x-x-x-x-x-x-x-x-x-x-x-x-x-x-x-x-x-x-x-x-|
B|-x-x-x-x-x-x-x-x-x-x-x-x-x-x-x-x-x-x-x-x-x-x-x-x-x-x-x-x-x-x-x-x-|
G|-x-x-x-x-x-x-x-x-x-x-x-x-x-x-x-x-x-x-x-x-x-x-x-x-x-x-x-x-x-x-x-x-|
D|-3-3-3-3-3-3-2-2-3-3-3-3-3-3-5-5-2-2-2-2-2-2-x-x-x-x-x-x-x-x-2-2-|
A|-1-1-1-1-1-1-0-0-1-1-1-1-1-1-3-3-0-0-0-0-0-0-3-3-5-5-5-5-5-5-0-0-|
E|-x-x-x-x-x-x-x-x-x-x-x-x-x-x-x-x-x-x-x-x-x-x-1-1-3-3-3-3-3-3-x-x-|
      B     [A]     B     C     [A]     F       G   [A]

G             B
In this farewell,
          F
There’s no blood,
          C
There’s no alibi.
G               B
‘Cause I’ve drawn regret,
        F
From the truth,
          C
Of a thousand lies.
G              B
So let mercy come,
      F
And wash away…
   C         G
What I’ve Done.
   B
I’ll face myself,
F             C        G
To cross out what I’ve become.
   B
Erase myself,
F               [C*]      G
And let go of what I’ve done.
    B
Put to rest,
  F                   C
What you thought of me.
                 G
While I clean this slate,
     B
With the hands,
      F         C
Of uncertainty.
             G
So let mercy come,
 B        F
And wash away…
C        G
What I’ve Done.
        B
I’ll face myself,
 F           C        G
To cross out what I’ve become.
   B
Erase myself,
F             C        G
And let go of what I’ve done.

[Solo]
e|------------------------|--------------------------------|
B|------------------------|--------------------------------|
G|-3-5~--5--5--5--7--8888-|3-5-3--3--3--3--5--7--5--3------|
D|------------------------|--------------------------------|
A|------------------------|--------------------------------|
E|------------------------|--------------------------------|

e|------------------|-------------------------|-------------|
B|------------------|-------------------------|-------------|
G|-5--5--5--7--8888-|-3-5-3--3--3--3--5-7-5-3-|-3p0--2p0--0-|
D|------------------|-------------------------|-------------|
A|------------------|-------------------------|-------------|
E|------------------|-------------------------|-------------|

             G
For What I’ve Done
        B
I'll start again,
   F            C     G
And whatever pain may come.
      B
Today this ends,
  F            C     G
I’m forgiving what I’ve done.
      B
I’ll face myself,
  F            C       G
To cross out what I’ve become.
    B
Erase myself,
  F            C     G
And let go of what I’ve done.
 B      F
Na Na Na Na Na Na
   C      G
What I’ve done.


************************************

| x  Dead note
| ~  Vibrato
| p  Pull-off

************************************
Suggest correction
comments
print report bad tab
3 comments total.
0 reply
bivens 10 Jan 16, 2009 02:57 PM

no dude, you killed the song

+1 reply
kelektrik 30 Aug 31, 2009 09:10 AM

Seriously, that orgy of X's make the tab hard to read/

0 reply
martinnyman97 10 Mar 01, 2015 02:13 AM

and it is not B, it is Bb in the cords. and the solo is al wrong the solo gose

e----------------------------------------------------------------
b--3-6---6---6---8---11------3-6---6---6---6---8---10---8---6---6
G----------------------------------------------------------------
D----------------------------------------------------------------
A----------------------------------------------------------------
E----------------------------------------------------------------

e----------------------------------------------------------------
b--3-6---6---6---8---11------3-6---6---6---6---8---10---8---6---3
G----------------------------------------------------------------
D----------------------------------------------------------------
A----------------------------------------------------------------
E----------------------------------------------------------------

e--------------------------------
b---8------6-------8-------------
G--------------------------------
D--------------------------------
A--------------------------------
E--------------------------------

guest
You may want to rate the tab now too:
select rating
Wanna post a correction for this tab? Suggest correction