Oops, an error
Loading. Please wait.
We have an official What Ive Done tab made by UG professional guitarists. Check out the tab »
×
185,972 views 1,323 this week
27 commentsread comments
1 2 3 4 5
x 69
add to favorites
×
Save as Personal and add changes to this tab that will be seen only by you. Learn more ›
×
You can save this tab as Personal to edit and correct it or add notes. All changes will be seen only by you. Learn more »
launch autoscroll
font size
0
reset
how to read this tab
guitar tuner
backing track
0:00
0:00
edit
Autoscroll
slow
fast
+/-
esc
set tempo
stop
Ok, this is my first tab, so go easy. I've been playing for 4 years, but I thought I 
start my tabbing experience with something fairly simple, just to get into the swing of it...
I looked at other tabs and something just didn't sound right to me, so I decided to make 
own. I assume it's tuned to Drop D, as most Linkin Park
songs are, but you should be able to figure it out in standard tuning if
you prefer...


[Piano intro]

(transcribed on guitar):

E|---10---10-11p10---10-|
B|-8----8----------8----|
G|----------------------|
D|----------------------|
A|----------------------|
D|----------------------|
this is repeated throughout the song, but is really only heard
in the intro and verses (and at the very end).


[Intro]

(lead guitar):
E|-xx----------------------------------------------------------------------|
B|-xx----------------------------------------------------------------------|
G|-xx-3-3-3-3-3-3--2-2--3-3-3-3-3-3--5-5-2-2-2-2-2-2-2-2--0-0-0-0-0-0--2-2-|
D|-xx-5-5-5-5-5-5--5-5--5-5-5-5-5-5--5-5-3-3-3-3-3-3-3-3--1-1-1-1-1-1--3-3-|
A|-xx----------------------------------------------------------------------|
D|-xx----------------------------------------------------------------------|


[Intro]

(rhythm guitar):
       G5               Bb5             F5              C5
E|-xx-------------------------------------------------------------------|
B|-xx-------------------------------------------------------------------|
G|-xx-------------------3-3-3-3-3-3-3-3-----------------5-5-5-5-5-5-5-5-|
D|-xx--5-5-5-5-5-5-5-5--3-3-3-3-3-3-3-3-3-3-3-3-3-3-3-3-5-5-5-5-5-5-5-5-|
A|-xx--5-5-5-5-5-5-5-5--1-1-1-1-1-1-1-1-3-3-3-3-3-3-3-3-3-3-3-3-3-3-3-3-|
D|-xx--5-5-5-5-5-5-5-5------------------3-3-3-3-3-3-3-3-----------------|

(end on G5)


[Verse 1]

(Piano riff is repeated for each line)

In this farewell,
there's no blood,
there's no alibi.
Cause I've drawn regret,
from the truth,
of a thousand lies.


Pre-chorus: (piano part just plays 10th fret high E until chorus comes in)

So let mercy come
and wash away.


[Chorus] 

(lead):
E|-xxxx----------------------------------------------------------------------|
B|-xxxx----------------------------------------------------------------------|
G|-xxxx-3-3-3-3-3-3--2-2--3-3-3-3-3-3--5-5-2-2-2-2-2-2-2-2--0-0-0-0-0-0--2-2-|
D|-xxxx-5-5-5-5-5-5--5-5--5-5-5-5-5-5--5-5-3-3-3-3-3-3-3-3--1-1-1-1-1-1--3-3-|
A|-xxxx----------------------------------------------------------------------|
D|-xxxx----------------------------------------------------------------------|


[Chorus]

(rhythm):
         G5               Bb5             F5              C5
E|-xxxx-------------------------------------------------------------------|
B|-xxxx-------------------------------------------------------------------|
G|-xxxx-------------------3-3-3-3-3-3-3-3-----------------5-5-5-5-5-5-5-5-|
D|-xxxx--5-5-5-5-5-5-5-5--3-3-3-3-3-3-3-3-3-3-3-3-3-3-3-3-5-5-5-5-5-5-5-5-|
A|-xxxx--5-5-5-5-5-5-5-5--1-1-1-1-1-1-1-1-3-3-3-3-3-3-3-3-3-3-3-3-3-3-3-3-|
D|-xxxx--5-5-5-5-5-5-5-5------------------3-3-3-3-3-3-3-3-----------------|

What I've done,
I'll face myself,
To cross out what I've become,
Erase myself,
and let go of what I've done.


[Verse 2]

(piano riff repeated again)

Put to rest,
What you thought of me.
While I clean this slate,
with the hands of uncertainty.


[Pre-chorus]

(Same as above)

[Chorus]

(Same as above)


[Solo]

(lead guitar):

E|----------------------6-6-6--------------------7------|
B|---6---6-6---6---8------------6---6-6---6---8----8--6-|
G|-7---7-----7---7----7-------7---7-----7---7-----------|
D|------------------------------------------------------|
A|------------------------------------------------------|
D|------------------------------------------------------|

E|----------------------6-6-6--------------------7--------6---8---10~-|
B|---6---6-6---6---8------------6---6-6---6---8----8--6-----8---8-----|
G|-7---7-----7---7----7-------7---7-----7---7-----------7-------------|
D|--------------------------------------------------------------------|
A|--------------------------------------------------------------------|
D|--------------------------------------------------------------------|


[Bridge]

(just the lead guitar playing):

E|----------------------------------------------------------------------|
B|----------------------------------------------------------------------|
G|-3-3-3-3-3-3--2-2--3-3-3-3-3-3--5-5-2-2-2-2-2-2-2-2--0-0-0-0-0-0--2-2-|
D|-5-5-5-5-5-5--5-5--5-5-5-5-5-5--5-5-3-3-3-3-3-3-3-3--1-1-1-1-1-1--3-3-|
A|----------------------------------------------------------------------|
D|----------------------------------------------------------------------|

What I've done,
I'll start again,
And whatever pain may come.
Today this ends,
I'm forgiving what I've done.


[Chorus]

(same as above)


[Outro]

(play the chorus riff)
(lead and rhythm)

What I've done
              (na na na, na na na, na na na, na na na)

then the piano part, and end on the na nas, and you're done. =D
please comment and rate, as I'm sure I made some sort of mistake, though I tried not to.
Suggest correction
Creating personal tab
Creating personal tab
You can edit any tab online and save it as your Personal.

You can edit, replace or remove any tab part or add personal notes – all changes will be seen only by you.

Personal tabs can be accessed anytime from any device, even offline.
Learn more »
comments
print report bad tab
27 comments total. Showing first comments.
+1 reply
momom 10 Jul 08, 2007 07:22 PM

good job dude its perfect

+3 reply
bgbnbigben 83 Jul 17, 2007 12:19 AM

although, it would make more sense for the guitars to be in standard tuning, because that makes the second guitar's chorus line into all power chords.

+4 reply
Bruce andrews 10 Jul 21, 2007 10:39 AM

i dont know that guitar 1 part sounds a little funny but every thing else is really good

guest
You may want to rate the tab now too:
select rating
Wanna post a correction for this tab? Suggest correction