Oops, an error
Loading. Please wait.
We have an official What Ive Done tab made by UG professional guitarists. Check out the tab »
×
12,836 views 15 this week
1 commentread comment
1 2 3 4 5
x 5
add to favorites
×
Save as Personal and add changes to this tab that will be seen only by you. Learn more ›
×
You can save this tab as Personal to edit and correct it or add notes. All changes will be seen only by you. Learn more »
launch autoscroll
font size
0
reset
how to read this tab
guitar tuner
backing track
0:00
0:00
edit
Autoscroll
slow
fast
+/-
esc
set tempo
stop
Author
Difficulty
What I've Done -

Intro - Played by Piano throughout the whole song.


e|-----10---10-11-10---------------------------------------------|
B|---8----8------------------------------------------------------|
G|---------------------------------------------------------------|
D|---------------------------------------------------------------|
A|---------------------------------------------------------------|
E|---------------------------------------------------------------|
                  0r
e|---------------------------------------------------------------|
B|------15----15-16-15-------------------------------------------|
G|---12----12----------------------------------------------------|
D|---------------------------------------------------------------|
A|---------------------------------------------------------------|
E|---------------------------------------------------------------|

_____________________________________________________________________________________

Chorus
Guitar 1

e|-----------------------------------------------------------------|
B|-----------------------------------------------------------------|
G|-----------------------------------------------------------------|
D|--5-5-5-5-5-5-5-5--8-8-8-8-8-8-8-8--3-3-3-3-3-3-3-3--------------|
A|--5-5-5-5-5-5-5-5--8-8-8-8-8-8-8-8--3-3-3-3-3-3-3-3--------------|
E|--3-3-3-3-3-3-3-3--6-6-6-6-6-6-6-6--1-1-1-1-1-1-1-1--------------|

e|------------------------------I--------------------------------|
B|------------------------------I--------------------------------|
G|------------------------------I--------------------------------|
D|-10-10-10-10-10-10-10-10------I-----3--------------------------|
A|-10-10-10-10-10-10-10-10------I-----5--------------------------|
E|--8--8--8--8--8--8--8--8------I-----5--------------------------|

Play two times then ----------------->


Chorus
Guitar 2

e|--------------------------------------------------------------------|
B|--------------------------------------------------------------------|
G|--------------------------------------------------------------------|
D|--------------------------------------------------------------------|
A|---13-13-13-13-13-13-12-12-13-13-13-13-13-13-15-15-12-12-12-12-12---|I
E|--------------------------------------------------------------------|


e|-----------------------------------------I------------------------|
B|-----------------------------------------I------------------------|
G|-----------------------------------------I------------------------|
D|-----------------------------------------I------------------------|
A|----12-12-12-10-10-10-10-10-10-12-12-----I---13-------------------|
E|-----------------------------------------I------------------------|

________________________________________________________________________________________

Verse 1
In the real song the guitar doesn't play in the verse, but you can play the piano low 
which goes like this. - You can play this part with the intro.
e|---------------------------------------------------------------|
B|---------------------------------------------------------------|
G|---------------------------------------------------------------|
D|---------------------------------------------------------------|
A|--------------------------------8---------------3--------------|
E|----5------------8---------------------------------------------|

                          Or you can just play that other piano part.


e|-----10---10-11-10---------------------------------------------|
B|---8----8------------------------------------------------------|
G|---------------------------------------------------------------|
D|---------------------------------------------------------------|
A|---------------------------------------------------------------|
E|---------------------------------------------------------------|
                  0r
e|---------------------------------------------------------------|
B|------15----15-16-15-------------------------------------------|
G|---12----12----------------------------------------------------|
D|---------------------------------------------------------------|
A|---------------------------------------------------------------|
E|---------------------------------------------------------------|


___________________________________________________________________________________________


Chorus
Guitar 1

e|-----------------------------------------------------------------|
B|-----------------------------------------------------------------|
G|-----------------------------------------------------------------|
D|--5-5-5-5-5-5-5-5--8-8-8-8-8-8-8-8--3-3-3-3-3-3-3-3--------------|
A|--5-5-5-5-5-5-5-5--8-8-8-8-8-8-8-8--3-3-3-3-3-3-3-3--------------|
E|--3-3-3-3-3-3-3-3--6-6-6-6-6-6-6-6--1-1-1-1-1-1-1-1--------------|

e|------------------------------I--------------------------------|
B|------------------------------I--------------------------------|
G|------------------------------I--------------------------------|
D|-10-10-10-10-10-10-10-10------I-----3--------------------------|
A|-10-10-10-10-10-10-10-10------I-----5--------------------------|
E|--8--8--8--8--8--8--8--8------I-----5--------------------------|

Play two times then ----------------->


Chorus
Guitar 2

e|--------------------------------------------------------------------|
B|--------------------------------------------------------------------|
G|--------------------------------------------------------------------|
D|--------------------------------------------------------------------|
A|---13-13-13-13-13-13-12-12-13-13-13-13-13-13-15-15-12-12-12-12-12---|I
E|--------------------------------------------------------------------|


e|-----------------------------------------I------------------------|
B|-----------------------------------------I------------------------|
G|-----------------------------------------I------------------------|
D|-----------------------------------------I------------------------|
A|----12-12-12-10-10-10-10-10-10-12-12-----I---13-------------------|
E|-----------------------------------------I------------------------|


___________________________________________________________________________________________

Verse 2

e|---------------------------------------------------------------|
B|---------------------------------------------------------------|
G|---------------------------------------------------------------|
D|---------------------------------------------------------------|
A|--------------------------------8---------------3--------------|
E|----5------------8---------------------------------------------|

                          Or you can just play that other piano part.


e|-----10---10-11-10---------------------------------------------|
B|---8----8------------------------------------------------------|
G|---------------------------------------------------------------|
D|---------------------------------------------------------------|
A|---------------------------------------------------------------|
E|---------------------------------------------------------------|
                  0r
e|---------------------------------------------------------------|
B|------15----15-16-15-------------------------------------------|
G|---12----12----------------------------------------------------|
D|---------------------------------------------------------------|
A|---------------------------------------------------------------|
E|---------------------------------------------------------------|

_______________________________________________________________________________________


Chorus
Guitar 1
e|-----------------------------------------------------------------|
B|-----------------------------------------------------------------|
G|-----------------------------------------------------------------|
D|--5-5-5-5-5-5-5-5--8-8-8-8-8-8-8-8--3-3-3-3-3-3-3-3--------------|
A|--5-5-5-5-5-5-5-5--8-8-8-8-8-8-8-8--3-3-3-3-3-3-3-3--------------|
E|--3-3-3-3-3-3-3-3--6-6-6-6-6-6-6-6--1-1-1-1-1-1-1-1--------------|

e|----------------------------------------------------------------|
B|----------------------------------------------------------------|
G|----------------------------------------------------------------|
D|-10-10-10-10-10-10-10-10----------------------------------------|
A|-10-10-10-10-10-10-10-10----------------------------------------|
E|--8--8--8--8--8--8--8--8----------------------------------------|I

e|-----------------------------------------------------------------|
B|-----------------------------------------------------------------|
G|-----------------------------------------------------------------|
D|--5-5-5-5-5-5-5-5--8-8-8-8-8-8-8-8--3-3-3-3-3-3-3-3--------------|
A|--5-5-5-5-5-5-5-5--8-8-8-8-8-8-8-8--3-3-3-3-3-3-3-3--------------|
E|--3-3-3-3-3-3-3-3--6-6-6-6-6-6-6-6--1-1-1-1-1-1-1-1--------------|

e|--------------------------------------------------------------|
B|--------------------------------------------------------------|
G|--------------------------------------------------------------|
D|-10-10-10-10-10-10-10-10-10-10-10-10-10-10--------------------|
A|-10-10-10-10-10-10-10-10-10-10-10-10-10-10--------------------|
E|--8--8--8--8--8--8--8--8--8--8--8--8--8--8--------------------|

Chorus
Guitar 2

e|--------------------------------------------------------------------|
B|--------------------------------------------------------------------|
G|--------------------------------------------------------------------|
D|--------------------------------------------------------------------|
A|---13-13-13-13-13-13-12-12-13-13-13-13-13-13-15-15-12-12-12-12-12---|I
E|--------------------------------------------------------------------|


e|--------------------------------------------------------------|
B|--------------------------------------------------------------|
G|--------------------------------------------------------------|
D|--------------------------------------------------------------|
A|----12-12-12-10-10-10-10-10-10-12-12-12-12-12-12-12-12--------|
E|--------------------------------------------------------------|


__________________________________________________________________________________________

Solo


e|---------------------------------------------------------------|
B|---------------------------------11----------------------------|
G|------10----10----10----10----12-------------------------------|
D|---12----12----12----12----12----------------------------------|
A|---------------------------------------------------------------|
E|---------------------------------------------------------------|

e|---------------------------------------------------------------|
B|---------------------------------------------------------------|
G|------10----10---10---10----12-14-12---------------------------|
D|---12----12----12---12---12------------------------------------|
A|---------------------------------------------------------------|
E|---------------------------------------------------------------|

e|---------------------------------------------------------------|
B|---------------------------------11----------------------------|
G|------10----10----10----10----12-------------------------------|
D|---12----12----12----12----12----------------------------------|
A|---------------------------------------------------------------|
E|---------------------------------------------------------------|

e|---------------------------------------------------------------|
B|---------------------------------------------------------------|
G|------10----10---10---10----12-14-12---------------------------|
D|---12----12----12---12---12------------------------------------|
A|---------------------------------------------------------------|
E|---------------------------------------------------------------|


e|---------------------------------------------------------------|
B|-------11------------------------------------------------------|
G|----------------10----------12---------------------------------|
D|---12-----12---------12----------------------------------------|
A|---------------------------------------------------------------|
E|---------------------------------------------------------------|

Other Guitar Plays

e|-----------------------------------------------------------------|
B|-----------------------------------------------------------------|
G|-----------------------------------------------------------------|
D|--5-5-5-5-5-5-5-5--8-8-8-8-8-8-8-8--3-3-3-3-3-3-3-3--------------|
A|--5-5-5-5-5-5-5-5--8-8-8-8-8-8-8-8--3-3-3-3-3-3-3-3--------------|
E|--3-3-3-3-3-3-3-3--6-6-6-6-6-6-6-6--1-1-1-1-1-1-1-1--------------|

e|----------------------------------------------------------------|
B|----------------------------------------------------------------|
G|----------------------------------------------------------------|
D|-10-10-10-10-10-10-10-10----------------------------------------|
A|-10-10-10-10-10-10-10-10----------------------------------------|
E|--8--8--8--8--8--8--8--8----------------------------------------|I

e|-----------------------------------------------------------------|
B|-----------------------------------------------------------------|
G|-----------------------------------------------------------------|
D|--5-5-5-5-5-5-5-5--8-8-8-8-8-8-8-8--3-3-3-3-3-3-3-3--------------|
A|--5-5-5-5-5-5-5-5--8-8-8-8-8-8-8-8--3-3-3-3-3-3-3-3--------------|
E|--3-3-3-3-3-3-3-3--6-6-6-6-6-6-6-6--1-1-1-1-1-1-1-1--------------|

e|--------------------------------------------------------------|
B|--------------------------------------------------------------|
G|--------------------------------------------------------------|
D|-10-10-10-10-10-10-10-10-10-10-10-10-10-10--------------------|
A|-10-10-10-10-10-10-10-10-10-10-10-10-10-10--------------------|
E|--8--8--8--8--8--8--8--8--8--8--8--8--8--8--------------------|


__________________________________________________________________________________________

Bridge


e|--------------------------------------------------------------------|
B|--------------------------------------------------------------------|
G|--------------------------------------------------------------------|
D|--------------------------------------------------------------------|
A|---13-13-13-13-13-13-12-12-13-13-13-13-13-13-15-15-12-12-12-12-12---|I
E|--------------------------------------------------------------------|


e|----------------------------------------------------------------|
B|----------------------------------------------------------------|
G|----------------------------------------------------------------|
D|----------------------------------------------------------------|
A|----12-12-12-10-10-10-10-10-10-12-12----------------------------|
E|----------------------------------------------------------------|


e|--------------------------------------------------------------------|
B|--------------------------------------------------------------------|
G|--------------------------------------------------------------------|
D|--------------------------------------------------------------------|
A|---13-13-13-13-13-13-12-12-13-13-13-13-13-13-15-15-12-12-12-12-12---|I
E|--------------------------------------------------------------------|


e|--------------------------------------------------------------|
B|--------------------------------------------------------------|
G|--------------------------------------------------------------|
D|--------------------------------------------------------------|
A|----12-12-12-10-10-10-10-10-10-10-10-10-10-10-10-10-10-10-10--|
E|--------------------------------------------------------------|

________________________________________________________________________________________

Chorus
Guitar 1

e|-----------------------------------------------------------------|
B|-----------------------------------------------------------------|
G|-----------------------------------------------------------------|
D|--5-5-5-5-5-5-5-5--8-8-8-8-8-8-8-8--3-3-3-3-3-3-3-3--------------|
A|--5-5-5-5-5-5-5-5--8-8-8-8-8-8-8-8--3-3-3-3-3-3-3-3--------------|
E|--3-3-3-3-3-3-3-3--6-6-6-6-6-6-6-6--1-1-1-1-1-1-1-1--------------|

e|------------------------------I----------------------------------|
B|------------------------------I----------------------------------|
G|------------------------------I----------------------------------|
D|-10-10-10-10-10-10-10-10------I----------------------------------|
A|-10-10-10-10-10-10-10-10------I----------------------------------|
E|--8--8--8--8--8--8--8--8------I----------------------------------|

Play 4 Times


Chorus
Guitar 2

e|--------------------------------------------------------------------|
B|--------------------------------------------------------------------|
G|--------------------------------------------------------------------|
D|--------------------------------------------------------------------|
A|---13-13-13-13-13-13-12-12-13-13-13-13-13-13-15-15-12-12-12-12-12---|I
E|--------------------------------------------------------------------|


e|----------------------------------------------------------------|
B|----------------------------------------------------------------|
G|----------------------------------------------------------------|
D|----------------------------------------------------------------|
A|----12-12-12-10-10-10-10-10-10-12-12----------------------------|
E|----------------------------------------------------------------|

Play 4 Times

__________________________________________________________________________________________

Piano Outro
Suggest correction
Creating personal tab
Creating personal tab
You can edit any tab online and save it as your Personal.

You can edit, replace or remove any tab part or add personal notes – all changes will be seen only by you.

Personal tabs can be accessed anytime from any device, even offline.
Learn more »
comments
print report bad tab
1 comment total.
0 reply
Blndbat8719 10 Nov 13, 2007 05:26 PM

Looks good for a standard tuning version tab of the song.

guest
You may want to rate the tab now too:
select rating
Wanna post a correction for this tab? Suggest correction