Oops, an error
Loading. Please wait.

When They Come For Me Tab

version 1
version 1

Whole song

8,772 views 12 this week
5 commentsread comments
1 2 3 4 5
x 8
add to favorites
launch autoscroll
font size
0
reset
how to read this tab
guitar tuner
Autoscroll
slow
fast
+/-
esc
set tempo
stop
Help us to improve Ultimate-Guitar.com Take our survey!
×
Author
Difficulty
Tuning
novice
D G C F A D
Artist....Linkin Park
Song......When They Come For Me
Album.....A Thousand Suns
Tuning....Drop D

OKAY SOMEBODY PLEASE RATE THIS TAB. ITS GOT OVER 1500 VIEWS AND NO RATINGS.
GOOD OR BAD, I DONT CARE, JUST RATE IT.

Now I know there isn't a lot of guitar in this song, and what there is, is 
pretty simplistic so I'll tab it out.

During the intro, when the tapping is all that's going, it sounds like a 
guitar with a phaser on or something. Goes a little something like this:

Mike's Part:
Intro Part 1:
e\------------------------------------------------------------------/
B\------------------------------------------------------------------/
G\------------------------------------------------------------------/  x2
D\-3--3--3-------3-3-3-------3--2-----------------------------------/
A\-3--3--3-------3-3-3-------3--2-----------------------------------/
D\-3--3--3-------3-3-3-------3--2-----------------------------------/
   D  D  D       D U D       D  D  

Once the drums kick in, the guitar changes a little bit to suite the drums.

Intro Part 2:
e\------------------------------------------------------------------/
B\------------------------------------------------------------------/
G\------------------------------------------------------------------/ x1
D\-3--3--3-------------------3--2-----------------------------------/ 
A\-3--3--3-------------------3--2-----------------------------------/
D\-3--3--3-------------------3--2-----------------------------------/
   D  D  D                   D  D 

e\------------------------------------------------------------------/
B\------------------------------------------------------------------/
G\------------------------------------------------------------------/ x3
D\-3--3--3----------------3--3--2-----------------------------------/ 
A\-3--3--3----------------3--3--2-----------------------------------/
D\-3--3--3----------------3--3--2-----------------------------------/
   D  D  D                D  D  D 

Then after everything fades out for about 10 seconds, it comes in more powerful this time.

Chorus/Verse:
e\------------------------------------------------------------------/
B\------------------------------------------------------------------/
G\------------------------------------------------------------------/ x2
D\---3~-3~-2~-------------------------------------------------------/
A\---3~-3~-2~-------------------------------------------------------/
D\---3~-3~-2~-------------------------------------------------------/

I don't know if the guitar or the bass should play through the verse but if 
you want to play the guitar it's just the above repeated throughout it.
The above is also played through the vocalizing part, which I call the 
chorus.

Chester's Part:

e\------------------------------------------------------------------/
B\------------------------------------------------------------------/
G\------------------------------------------------------------------/ 
D\--------4~---2-------------3~---1---------------------------------/
A\--2--2---------------1--1-----------------------------------------/
D\----------------5~-----------------4~-----------------------------/
^^Repeat until 4:21, when all the instruments drop out.

e\------------------------------------------------------------------/
B\------------------------------------------------------------------/
G\------------------------------------------------------------------/ 
D\---3~-3~-2~-------------------------------------------------------/
A\---3~-3~-2~-------------------------------------------------------/
D\---3~-3~-2~-------------------------------------------------------/
^^Repeat until the end.

And there you have it, another great Linkin Park song.
~ indicates that you let the note ring out.
Suggest correction
comments
print report bad tab
5 comments total. Showing first comments.
0 reply
godisasniper 60 Sep 27, 2010 10:49 PM

I'm wondering what those harmonics are that show up all over the song - I think they're from the bass, but it would still be nice to have some way to imitate them.

0 reply
DigitalPimpSlap 20 Oct 22, 2010 02:11 PM

gotta love the chorus... Ahhhhhhhhhhhhhhhhhhh
Ahhhhhhhhhhhhhhhhhhh
Then the Middle Eastern part lol. did they do this live yet?

0 reply
Caboose911 223 Oct 25, 2010 08:56 PM

@DigitalPimpSlap
Well as far as I know they are gonna be doin a series of live shows on the album soon so I would love to see them pull it off live xD

guest
You may want to rate the tab now too:
select rating
Wanna post a correction for this tab? Suggest correction