Oops, an error
Loading. Please wait.

With You tab

version 7
version 7
29,944 views 183 this week
3 commentsread comments
1 2 3 4 5
x 13
add to favorites
×
Save as Personal and add changes to this tab that will be seen only by you. Learn more ›
×
You can save this tab as Personal to edit and correct it or add notes. All changes will be seen only by you. Learn more »
launch autoscroll
font size
0
reset
how to read this tab
guitar tuner
edit
Autoscroll
slow
fast
+/-
esc
set tempo
stop
Author
Tuning: 7 string (B,E,A,D,G,b,e) or 6 string (B,E,A,D,G,b)

[Intro/Pre-chorus]
e|-------------------------------------------------------|
b|-------------------------------------------------------|
G|-------------------------------------------------------|
D|-------------------------------------------------------|
A|-2--2-2-3--2-2--2--2--2-----2--2-2-3--2-2--2--2--2-----|
E|-2--2-2-3--2-2--2--2--2-----2--2-2-3--2-2--2--2--2-----|
B|-0--0-0-1--0-0--0--0--0-3*--0--0-0-1--0-0--0--0--0-3*--|

[Verse]
e|--------------------------------------------------------|
b|-------7*-----------12*---------------------------------|
G|-5*----------7*-----------------------------------------|
D|--------------------------------------------------------|
A|--------------------------------------------------------|
E|--------------------------------------------------------|
B|--------------------------------------------------------|

e|--------------------------------------------------------|
b|----------12*-----------7*------------------------------|
G|-7*-(7*)-- 12*-------------7*---------------------------|
D|-(7*)-------12*-7*--------------------------------------| 
A|--------------------------------------------------------|     
E|--------------------------------------------------------|
B|--------------------------------------------------------|

[Chorus]
e|---------------------------------------------|
b|---------------------------------------------|
G|---------------------------------------------|
D|-2~--------------------7~---------4~---------|
A|-2~---------2~---------5~---------5~---------|
E|-0~---------2~---------3~---------5~---------|
B|------------0~--------------------3~---------|
                        *
                        /\

(Other options for this chord) (considering it may be harder for some ppl to fret)
e|---------------------------------------------------|
b|-----3---------------------------------------------|
G|-----2---------------------7-----------------------|
D|-----0-------------or------7-------or--7----or-----|
A|-----x---------------------5-----------5--------12-|
E|-----3---------------------0-----------3--------10-|
B|------------------------------------------------8--|


************************************

| *  Natural harmonic
| ~  Vibrato
| x  Dead note

************************************

            
            
Suggest correction
Creating personal tab
Creating personal tab
You can edit any tab online and save it as your Personal.

You can edit, replace or remove any tab part or add personal notes – all changes will be seen only by you.

Personal tabs can be accessed anytime from any device, even offline.
Learn more »
comments
print report bad tab
3 comments total.
+1 reply
breadtruck 244 Jun 11, 2011 09:55 AM

Hey man good and accurate tab. You're so right about the whole 6/7 string debate because it really doesn't matter as long as you're in B tuning!

-1 reply
Pyrotake 20 Jan 09, 2017 01:58 PM

imho this song was written on a 6 string drop B, as they did for "Don't Stay"

guest
You may want to rate the tab now too:
select rating
Wanna post a correction for this tab? Suggest correction