Oops, an error
Loading. Please wait.

Treat Me Like Fire tab

268 views 9 this week
no commentswrite comment
1 2 3 4 5
3 more votes to show rating
add to favorites
×
Save as Personal and add changes to this tab that will be seen only by you. Learn more ›
×
You can save this tab as Personal to edit and correct it or add notes. All changes will be seen only by you. Learn more »
launch autoscroll
font size
0
reset
how to read this tab
guitar tuner
edit
Autoscroll
slow
fast
+/-
esc
set tempo
stop
Author
Difficulty
About this tab version
The basic chord progression is simple. Feel free to add some slides and palm mutes at different parts. Just vibe with it. Was this info helpful? Yes No
[Intro]
e|-----------------------|---------------------|-----------------------|----------------------|
B|-----------------------|---------------------|-----------------------|----------------------|
G|-----------------------|---------------------|-----------------------|----------------------|
D|-----------------------|---------------------|-----------------------|----------------------|
A|-9---9---9---9---9--9--|-9---9----9---9---9--|-8---8---8---8---8--8--|-8---8----8---8---8---|
E|-10--10--10--10--10-10-|-10--10---10--10--10-|-9---9---9---9---9--9--|-9---9----9---9---9---|
                    
e|-----------------------|---------------------|-----------------------|------------------------------------|
B|-----------------------|---------------------|-----------------------|------------------------------------|
G|-----------------------|---------------------|-----------------------|------------------------------------|
D|-----------------------|---------------------|-----------------------|------------10/11\10--10/11\10------|
A|-9---9---9---9---9--9--|-9---9----9---9---9--|-8---8---8---8---8--8--|-8---8---8--8/-9--\8--8/-9--\8-8h9p8|
E|-10--10--10--10--10-10-|-10--10---10--10--10-|-9---9---9---9---9--9--|-9---9---9--------------------------|

[Chorus]
e|-----------------------|---------------------|------------------------|----------------------|
B|-----------------------|---------------------|------------------------|----------------------|
G|-11--11--11--11--11-11-|-11--11---11--11--11-|-10--10---10--10--10-10-|-10--10---10--10--10--|
D|-11--11--11--11--11-11-|-11--11---11--11--11-|-10--10---10--10--10-10-|-10--10---10--10--10--|
A|-9---9---9---9---9--9--|-9---9----9---9---9--|-8---8----8---8---8--8--|-8---8----8---8---8---|
E|-10--10--10--10--10-10-|-10--10---10--10--10-|-9---9----9---9---9--9--|-9---9----9---9---9---|
                    
e|-----------------------|---------------------|------------------------|------------------------------------|
B|-----------------------|---------------------|------------------------|------------------------------------|
G|-11--11--11--11--11-11-|-11--11---11--11--11-|-10--10---10--10--10-10-|-10--10--10-------------------------|
D|-11--11--11--11--11-11-|-11--11---11--11--11-|-10--10---10--10--10-10-|-10--10--10-10/11\10--10/11\10------|
A|-9---9---9---9---9--9--|-9---9----9---9---9--|-8---8----8---8---8--8--|-8---8---8--8/-9--\8--8/-9--\8-8h9p8|
E|-10--10--10--10--10-10-|-10--10---10--10--10-|-9---9----9---9---9--9--|-9---9---9--------------------------|

[Verse]
e|-----------------------|---------------------|------------------------|----------------------|
B|-----------------------|---------------------|------------------------|----------------------|
G|-----------------------|---------------------|------------------------|----------------------|
D|-11--11--11--11--11-11-|-11--11---11--11--11-|-10--10---10--10--10-10-|-10--10---10--10--10--|
A|-9---9---9---9---9--9--|-9---9----9---9---9--|-8---8----8---8---8--8--|-8---8----8---8---8---|
E|-10--10--10--10--10-10-|-10--10---10--10--10-|-9---9----9---9---9--9--|-9---9----9---9---9---|
                    
e|-----------------------|---------------------|------------------------|------------------------------------|
B|-----------------------|---------------------|------------------------|------------------------------------|
G|-----------------------|---------------------|------------------------|------------------------------------|
D|-11--11--11--11--11-11-|-11--11---11--11--11-|-10--10---10--10--10-10-|-10--10--10-10/11\10--10/11\10------|
A|-9---9---9---9---9--9--|-9---9----9---9---9--|-8---8----8---8---8--8--|-8---8---8--8/-9--\8--8/-9--\8-8h9p8|
E|-10--10--10--10--10-10-|-10--10---10--10--10-|-9---9----9---9---9--9--|-9---9---9--------------------------|

e|-----------------------|---------------------|------------------------|----------------------|
B|-----------------------|---------------------|------------------------|----------------------|
G|-----------------------|---------------------|------------------------|----------------------|
D|-11--11--11--11--11-11-|-11--11---11--11--11-|-10--10---10--10--10-10-|-10--10---10--10--10--|
A|-9---9---9---9---9--9--|-9---9----9---9---9--|-8---8----8---8---8--8--|-8---8----8---8---8---|
E|-10--10--10--10--10-10-|-10--10---10--10--10-|-9---9----9---9---9--9--|-9---9----9---9---9---|
                    
e|-----------------------|---------------------|------------------------|------------------------------------|
B|-----------------------|---------------------|------------------------|------------------------------------|
G|-----------------------|---------------------|------------------------|------------------------------------|
D|-----------------------|-11--11---11--11--11-|-10--10---10--10--10-10-|-10--10--10-10/11\10--10/11\10------|
A|-----------------------|-9---9----9---9---9--|-8---8----8---8---8--8--|-8---8---8--8/-9--\8--8/-9--\8-8h9p8|
E|-----------------------|-10--10---10--10--10-|-9---9----9---9---9--9--|-9---9---9--------------------------|

[Chorus]
e|-----------------------|---------------------|------------------------|----------------------|
B|-----------------------|---------------------|------------------------|----------------------|
G|-11--11--11--11--11-11-|-11--11---11--11--11-|-10--10---10--10--10-10-|-10--10---10--10--10--|
D|-11--11--11--11--11-11-|-11--11---11--11--11-|-10--10---10--10--10-10-|-10--10---10--10--10--|
A|-9---9---9---9---9--9--|-9---9----9---9---9--|-8---8----8---8---8--8--|-8---8----8---8---8---|
E|-10--10--10--10--10-10-|-10--10---10--10--10-|-9---9----9---9---9--9--|-9---9----9---9---9---|
                    
e|-----------------------|---------------------|------------------------|------------------------------------|
B|-----------------------|---------------------|------------------------|------------------------------------|
G|-11--11--11--11--11-11-|-11--11---11--11--11-|-10--10---10--10--10-10-|-10--10--10-------------------------|
D|-11--11--11--11--11-11-|-11--11---11--11--11-|-10--10---10--10--10-10-|-10--10--10-10/11\10--10/11\10------|
A|-9---9---9---9---9--9--|-9---9----9---9---9--|-8---8----8---8---8--8--|-8---8---8--8/-9--\8--8/-9--\8-8h9p8|
E|-10--10--10--10--10-10-|-10--10---10--10--10-|-9---9----9---9---9--9--|-9---9---9--------------------------|

[Verse]
e|-----------------------|---------------------|------------------------|----------------------|
B|-----------------------|---------------------|------------------------|----------------------|
G|-----------------------|---------------------|------------------------|----------------------|
D|-11--11--11--11--11-11-|-11--11---11--11--11-|-10--10---10--10--10-10-|-10--10---10--10--10--|
A|-9---9---9---9---9--9--|-9---9----9---9---9--|-8---8----8---8---8--8--|-8---8----8---8---8---|
E|-10--10--10--10--10-10-|-10--10---10--10--10-|-9---9----9---9---9--9--|-9---9----9---9---9---|             

e|-----------------------|---------------------|------------------------|--------------------------------|
B|-----------------------|---------------------|------------------------|--------------------------------|
G|-----------------------|---------------------|------------------------|--------------------------------|
D|-11--11--11--11--11-11-|-11--11---11--11--11-|-10--10---10--10--10-10-|-(10)--(10)---(10)--(10)--(10)--|
A|-9---9---9---9---9--9--|-9---9----9---9---9--|-8---8----8---8---8--8--|-(8)---(8)----(8)---(8)---(8)---|
E|-10--10--10--10--10-10-|-10--10---10--10--10-|-9---9----9---9---9--9--|-(9)---(9)----(9)---(9)---(9)---|

e|-----------------------|---------------------|------------------------|----------------------|
B|-----------------------|---------------------|------------------------|----------------------|
G|-----------------------|---------------------|------------------------|----------------------|
D|-11--11--11--11--11-11-|-11--11---11--11--11-|-10--10---10--10--10-10-|-10--10---10--10--10--|
A|-9---9---9---9---9--9--|-9---9----9---9---9--|-8---8----8---8---8--8--|-8---8----8---8---8---|
E|-10--10--10--10--10-10-|-10--10---10--10--10-|-9---9----9---9---9--9--|-9---9----9---9---9---|

e|-----------------------|---------------------|------------------------|----------------------|
B|-----------------------|---------------------|------------------------|----------------------|
G|-----------------------|---------------------|------------------------|----------------------|
D|-11--11--11--11--11-11-|-11--11---11--11--11-|-10--10---10--10--10-10-|-10--10---10--10--10--|
A|-9---9---9---9---9--9--|-9---9----9---9---9--|-8---8----8---8---8--8--|-8---8----8---8---8---|
E|-10--10--10--10--10-10-|-10--10---10--10--10-|-9---9----9---9---9--9--|-9---9----9---9---9---|
                    
e|-----------------------|---------------------|------------------------|----------------------------|
B|-----------------------|---------------------|------------------------|----------------------------|
G|-----------------------|---------------------|------------------------|----------------------------|
D|-11--11--11--11--11-11-|-11--11---11--11--11-|-10--10---10--10--10-10-|-10--10--10-10/11\10--10/11-|
A|-9---9---9---9---9--9--|-9---9----9---9---9--|-8---8----8---8---8--8--|-8---8---8--8/-9--\8--8/-9--|
E|-10--10--10--10--10-10-|-10--10---10--10--10-|-9---9----9---9---9--9--|-9---9---9------------------|

[Chorus]
e|-----------------------|---------------------|------------------------|----------------------|
B|-----------------------|---------------------|------------------------|----------------------|
G|-11--11--11--11--11-11-|-11--11---11--11--11-|-10--10---10--10--10-10-|-10--10---10--10--10--|
D|-11--11--11--11--11-11-|-11--11---11--11--11-|-10--10---10--10--10-10-|-10--10---10--10--10--|
A|-9---9---9---9---9--9--|-9---9----9---9---9--|-8---8----8---8---8--8--|-8---8----8---8---8---|
E|-10--10--10--10--10-10-|-10--10---10--10--10-|-9---9----9---9---9--9--|-9---9----9---9---9---|
                    
e|-----------------------|---------------------|------------------------|------------------------------------|
B|-----------------------|---------------------|------------------------|------------------------------------|
G|-11--11--11--11--11-11-|-11--11---11--11--11-|-10--10---10--10--10-10-|-10--10--10-------------------------|
D|-11--11--11--11--11-11-|-11--11---11--11--11-|-10--10---10--10--10-10-|-10--10--10-10/11\10--10/11\10------|
A|-9---9---9---9---9--9--|-9---9----9---9---9--|-8---8----8---8---8--8--|-8---8---8--8/-9--\8--8/-9--\8-8h9p8|
E|-10--10--10--10--10-10-|-10--10---10--10--10-|-9---9----9---9---9--9--|-9---9---9--------------------------|

[Bridge]
e|------------------|-------------------|------------------|------------------|
B|-------12-12---12-|--------12-12---12-|-12--12-12--12-12-|-12--12-12--12-12-|
G|-------13-13---13-|--------13-13---13-|-11--11-11--11-11-|-11--11-11--11-11-|
D|----11------------|----11-------------|-9---9--9---9--9--|-9---9--9---9--9--|
A|-11----------11---|-11-----------11---|-9---9--9---9--9--|-9---9--9---9--9--|
E|------------------|-------------------|------------------|------------------|

e|------------------|------------------|------------------|------------------|
B|-12--12-12--12-12-|-12--12-12--12-12-|-12--12-12--12-12-|-12--12-12--12-12-|
G|-13--13-13--13-13-|-13--13-13--13-13-|-11--11-11--11-11-|-11--11-11--11-11-|
D|-11--11-11--11-11-|-11--11-11--11-11-|-9---9--9---9--9--|-9---9--9---9--9--|
A|-11--11-11--11-11-|-11--11-11--11-11-|-9---9--9---9--9--|-9---9--9---9--9--|
E|------------------|------------------|------------------|------------------|

[Chorus]
e|-----------------------|---------------------|------------------------|----------------------|
B|-----------------------|---------------------|------------------------|----------------------|
G|-11--11--11--11--11-11-|-11--11---11--11--11-|-10--10---10--10--10-10-|-10--10---10--10--10--|
D|-11--11--11--11--11-11-|-11--11---11--11--11-|-10--10---10--10--10-10-|-10--10---10--10--10--|
A|-9---9---9---9---9--9--|-9---9----9---9---9--|-8---8----8---8---8--8--|-8---8----8---8---8---|
E|-10--10--10--10--10-10-|-10--10---10--10--10-|-9---9----9---9---9--9--|-9---9----9---9---9---|
                    
e|-----------------------|---------------------|------------------------|------------------------------------|
B|-----------------------|---------------------|------------------------|------------------------------------|
G|-11--11--11--11--11-11-|-11--11---11--11--11-|-10--10---10--10--10-10-|-10--10--10-------------------------|
D|-11--11--11--11--11-11-|-11--11---11--11--11-|-10--10---10--10--10-10-|-10--10--10-10/11\10--10/11\10------|
A|-9---9---9---9---9--9--|-9---9----9---9---9--|-8---8----8---8---8--8--|-8---8---8--8/-9--\8--8/-9--\8-8h9p8|
E|-10--10--10--10--10-10-|-10--10---10--10--10-|-9---9----9---9---9--9--|-9---9---9--------------------------|

[Outro]
e|-----------------------|---------------------|------------------------|----------------------|
B|-----------------------|---------------------|------------------------|----------------------|
G|-----------------------|---------------------|------------------------|----------------------|
D|-----------------------|---------------------|------------------------|----------------------|
A|-9---9---9---9---9--9--|-9---9----9---9---9--|-8---8----8---8---8--8--|-8---8----8---8---8---|
E|-10--10--10--10--10-10-|-10--10---10--10--10-|-9---9----9---9---9--9--|-9---9----9---9---9---|

e|-----------------------|---------------------|------------------------|----------------------|
B|-----------------------|---------------------|------------------------|----------------------|
G|-----------------------|---------------------|------------------------|----------------------|
D|-----------------------|---------------------|------------------------|----------------------|
A|-9---9---9---9---9--9--|-9---9----9---9---9--|-8---8----8---8---8--8--|-8---8----8---8---8---|
E|-10--10--10--10--10-10-|-10--10---10--10--10-|-9---9----9---9---9--9--|-9---9----9---9---9---|
                    


************************************

| /    Slide up
| \    Slide down
| h    Hammer-on
| p    Pull-off
| (n)  Ghost note
                   

************************************

            
            
Suggest correction
Creating personal tab
Creating personal tab
You can edit any tab online and save it as your Personal.

You can edit, replace or remove any tab part or add personal notes – all changes will be seen only by you.

Personal tabs can be accessed anytime from any device, even offline.
Learn more »
Give kudos to tab author, rate the tab!
1 2 3 4 5
comments
print report bad tab
guest
You may want to rate the tab now too:
select rating
Wanna post a correction for this tab? Suggest correction