Oops, an error
Loading. Please wait.

Come Into My Arms tab

124 views 1 this week
no commentswrite comment
1 2 3 4 5
3 more votes to show rating
add to favorites
×
Save as Personal and add changes to this tab that will be seen only by you. Learn more ›
×
You can save this tab as Personal to edit and correct it or add notes. All changes will be seen only by you. Learn more »
launch autoscroll
font size
0
reset
how to read this tab
guitar tuner
edit
Autoscroll
slow
fast
+/-
esc
set tempo
stop
[Verse]

e|---------------------------------------|
H|---------------------------------------|
G|---------------------------------------|    
D|---0---0----0---------0----0---0----0--|
A|-5---7---9-------0-------5-------5-----|
E|--------------5-----7--------7---------|
come into my arms
and we will paint this bed
paint you on my brain
until my eyes turn red


[Chorus]

e|----------------------------------|
H|----------------------------------|
G|----------------------------------|    
D|---4---4---4---4---4---4---4---4--|
A|-----4-------4-------4-------4----|
E|-5-------5-------5-------5--------|
its an anger only I know
an anger you crush and fuel


[Instrumental]

e|---------------------------------------|
H|---------------------------------------|
G|---------------------------------------|    
D|---0---0----0---------0----0---0----0--|
A|-5---7---9-------0-------5-------5-----|
E|--------------5-----7--------7---------|


[Verse]

e|---------------------------------------|
H|---------------------------------------|
G|---------------------------------------|    
D|---0---0----0---------0----0---0----0--|
A|-5---7---9-------0-------5-------5-----|
E|--------------5-----7--------7---------|
so lend me your hands
but reach for my attention
tell me im good
but beg for my affections


[Chorus]

e|----------------------------------|
H|----------------------------------|
G|----------------------------------|    
D|---4---4---4---4---4---4---4---4--|
A|-----4-------4-------4-------4----|
E|-5-------5-------5-------5--------|
and its an anger only I know
an anger that you crush and fuel


[Instrumental]

e|---------------------------------------|
H|---------------------------------------|
G|---------------------------------------|    
D|---0---0----0---------0----0---0----0--|
A|-5---7---9-------0-------5-------5-----|
E|--------------5-----7--------7---------|


[Bridge]

e|--------------------------------------------------------------------|
H|--------------------------------------------------------------------|
G|--------------------------------------------------------------------|    
D|---4---4---4---4---4---4---4---4-----2---2---2---2---2---2---2---2--|
A|-----4-------4-------4-------4---------2-------2-------2-------2----|
E|-5-------5-------5-------5---------3-------3-------3-------3--------|
but all we said is all been undone now
and all we said is all been undone now

(sometimes he strums these chord on this part)

e|-0---0-----|
H|-0---0-----|
G|-6---4-----|    
D|-4---2-----|
A|-4---2-----|
E|-5---3-----|


[Verse]

e|---------------------------------------|
H|---------------------------------------|
G|---------------------------------------|    
D|---0---0----0---------0----0---0----0--|
A|-5---7---9-------0-------5-------5-----|
E|--------------5-----7--------7---------|
so come into my arms
and we will paint this bed
paint you on my brain
until my eyes turn red


[Chorus]

e|----------------------------------|
H|----------------------------------|
G|----------------------------------|    
D|---4---4---4---4---4---4---4---4--|
A|-----4-------4-------4-------4----|
E|-5-------5-------5-------5--------|
its an anger only I know
an anger you crush and fuel


[Bridge]

e|--------------------------------------------------------------------|
H|--------------------------------------------------------------------|
G|--------------------------------------------------------------------|    
D|---4---4---4---4---4---4---4---4-----2---2---2---2---2---2---2---2--|
A|-----4-------4-------4-------4---------2-------2-------2-------2----|
E|-5-------5-------5-------5---------3-------3-------3-------3--------|
but all we said is all been undone now
and all we said is all been undone now


[Interlude]

e|---------------------------------------|
H|---------------------------------------|
G|---------------------------------------|    
D|---0---0----0---------0----0---0----0--|
A|-5---7---9-------0-------5-------5-----|
E|--------------5-----7--------7---------|
only this can save what im after
only this can save what im after


[Bridge]

e|--------------------------------------------------------------------|
H|--------------------------------------------------------------------|
G|--------------------------------------------------------------------|    
D|---4---4---4---4---4---4---4---4-----2---2---2---2---2---2---2---2--|
A|-----4-------4-------4-------4---------2-------2-------2-------2----|
E|-5-------5-------5-------5---------3-------3-------3-------3--------|
but all we said is all been undone now
and all we said is all been undone now


[Verse]

e|---------------------------------------|
H|---------------------------------------|
G|---------------------------------------|    
D|---0---0----0---------0----0---0----0--|
A|-5---7---9-------0-------5-------5-----|
E|--------------5-----7--------7---------|
come into my arms
and we will paint this bed
paint you on my brain
until my eyes turn red


[Chorus]

e|----------------------------------|
H|----------------------------------|
G|----------------------------------|    
D|---4---4---4---4---4---4---4---4--|
A|-----4-------4-------4-------4----|
E|-5-------5-------5-------5--------|
its an anger only I know
an anger you crush and fuel

e|----------------------------------|
H|----------------------------------|
G|----------------------------------|    
D|---4---4---4---4---4---4---4---4--|
A|-----4-------4-------4-------4----|
E|-5-------5-------5-------5--------|
its an anger only I know
an anger you crush and fuel

            
            
Suggest correction
Creating personal tab
Creating personal tab
You can edit any tab online and save it as your Personal.

You can edit, replace or remove any tab part or add personal notes – all changes will be seen only by you.

Personal tabs can be accessed anytime from any device, even offline.
Learn more »
Give kudos to tab author, rate the tab!
1 2 3 4 5
comments
print report bad tab
guest
You may want to rate the tab now too:
select rating
Wanna post a correction for this tab? Suggest correction