Oops, an error
Loading. Please wait.

Endless Love tab

version 2
version 2

Whole song

Interactive

45,869 views 18 this week
1 commentread comment
1 2 3 4 5
x 4
add to favorites
×
Save as Personal and add changes to this tab that will be seen only by you. Learn more ›
×
You can save this tab as Personal to edit and correct it or add notes. All changes will be seen only by you. Learn more »
launch autoscroll
font size
0
reset
how to read this tab
guitar tuner
edit
Autoscroll
slow
fast
+/-
esc
set tempo
stop
Difficulty
                           Hello everyone!!
This is other version of endless love. I took this version from a film »the myth« and
it. If you didn't hear this version yet you should chek it on :
                                  It is really good song very nice and not hard to play. 
any mistakes or questions please mail me on jack_d.d@hotmail.com

~….let ring

VERSE 1 play it two times
|------------------------------------------------------------|
|------13---------------------------18--16-18-16-------------|
|--10------12—-10-12-13-15-17~-------------------15-17~--13--|
|-------------------------------15---------------------------|
|------------------------------------------------------------|
|------------------------------------------------------------|

|------------------------------------------------------------|
|-18-16-------------------------13—-11~----------------------|
|-------15-17-18-17~---13~--13-----------12—10~--------------|
|------------------------------------------------------------|
|------------------------------------------------------------|
|------------------------------------------------------------|


VERSE 2 play it two times
|------------------------------------------------------------|
|------------------------------------------------------------|
|10--12--13-15-17-13-12--8—-8--10--12--13-15-17---10---12--13|
|------------------------------------------------------------|
|------------------------------------------------------------|
|------------------------------------------------------------|

|------------------------------------------------------------|
|------------------------------------------------------------|
|--15--17--13—13~-8~-10--12--15--13-13~----------------------|
|------------------------------------------------------------|
|------------------------------------------------------------|
|------------------------------------------------------------|

VERSE 1 play it two times
|------------------------------------------------------------|
|------13---------------------------18--16-18-16-------------|
|--10------12—-10-12-13-15-17~-------------------15-17~--13--|
|-------------------------------15---------------------------|
|------------------------------------------------------------|
|------------------------------------------------------------|

|------------------------------------------------------------|
|-18-16-------------------------13—-11~----------------------|
|-------15-17-18-17~---13~--13-----------12—10~--------------|
|------------------------------------------------------------|
|------------------------------------------------------------|
|------------------------------------------------------------|


VERSE 2 play it two times
|------------------------------------------------------------|
|------------------------------------------------------------|
|10--12--13-15-17-13-12--8—-8--10--12--13-15-17---10---12--13|
|------------------------------------------------------------|
|------------------------------------------------------------|
|------------------------------------------------------------|


|------------------------------------------------------------|
|------------------------------------------------------------|
|--15--17--13—12~-8~-10--13--15--13-13~----------------------|
|------------------------------------------------------------|
|------------------------------------------------------------|
|------------------------------------------------------------|


VERSE 3 play it two times
|------------------------------------------------------------|
|------------------------------------------------------------|
|10--12--13-15-17--13--12—8~-8--10--12-13-15-17--10-12-13-15-|
|------------------------------------------------------------|
|------------------------------------------------------------|
|------------------------------------------------------------|

|------------------------------------------------------------|
|------------------------------------------------------------|
|17--13—12--8~--17-15-13-15-13—13~~--------------------------|
|------------------------------------------------------------|
|------------------------------------------------------------|
|------------------------------------------------------------|

At the end I change it a bit so now it's nicer and also easier to play. If you have
with rythm or playing this song you can see how to play it on:
http://www.youtube.com/watch?v=MYS2db7pDaIor or mail me on           Jack_d.d@hotmail.com
                   Hope you enyoj it!!!

            
            
Suggest correction
Creating personal tab
Creating personal tab
You can edit any tab online and save it as your Personal.

You can edit, replace or remove any tab part or add personal notes – all changes will be seen only by you.

Personal tabs can be accessed anytime from any device, even offline.
Learn more »
comments
print report bad tab
1 comment total.
0 reply
guitar(slo) 10 Sep 01, 2007 07:21 AM

Gr8 song you all should check it out. great!!!!

guest
Wanna post a correction for this tab? Suggest correction