Oops, an error
Loading. Please wait.

When I Wake Up Tab

232 views 9 this week
no commentswrite comment
1 2 3 4 5
1 last vote to show rating
add to favorites
launch autoscroll
font size
0
reset
how to read this tab
guitar tuner
Autoscroll
slow
fast
+/-
esc
set tempo
stop
Help us to improve Ultimate-Guitar.com Take our survey!
×
Author
Difficulty
Capo
novice
5th fret
About this tab version
Really easy Song to play, but sounds great. First Tab, but it should be exactly what he plays. If you find something, please improve :-). Was this info helpful? Yes No
Unplugged Version for Bremen Vier - https://www.youtube.com/watch?v=wAYV122Ro40

Capo on the 5th Fret


[Intro]

e|---------------------------------|---------------------------------|
B|---------------------------------|---------------------------------|
G|-------0---------------0---------|-------0---------------0---------|
D|-----2-----2---------2-----2-----|-----2-----2---------2-----2-----|
A|-3-----------3---3-----------3---|-2-----------2---2-----------2---|
E|---------------------------------|---------------------------------|

e|---------------------------------|---------------------------------|
B|---------------------------------|---------------------------------|
G|-------0---------------0---------|-------0---------------0---------|
D|-----2-----2---------2-----2-----|-----3-----3---------3-----3-----|
A|-0-----------0---0-----------0---|---------------------------------|
E|---------------------------------|-1-----------1---1-----------1---|


[Verse]

e|---------------------------------|---------------------------------|
B|---------------------------------|---------------------------------|
G|-------0---------------0---------|-------0---------------0---------|
D|-----2-----2---------2-----2-----|-----2-----2---------2-----2-----|
A|-3-----------3---3-----------3---|-2-----------2---2-----------2---|
E|---------------------------------|---------------------------------|

e|---------------------------------|---------------------------------|
B|---------------------------------|---------------------------------|
G|-------0---------------0---------|-------0---------------0---------|
D|-----2-----2---------2-----2-----|-----3-----3---------3-----3-----|
A|-0-----------0---0-----------0---|---------------------------------|
E|---------------------------------|-1-----------1---1-----------1---|

x3


e|---------------------------------|---------------------------------|
B|---------------------------------|---------------------------------|
G|-------0---------------0---------|-------0---------------0---------|
D|-----2-----2---------2-----2-----|-----2-----2---------2-----2-----|
A|-3-----------3---3-----------3---|-2-----------2---2-----------2---|
E|---------------------------------|---------------------------------|

e|---------------------------------|---------------------------------|
B|---------------------------------|---------------------------------|
G|-------0---------------0---------|-0-------------------------------|
D|-----2-----2---------2-----2-----|-3-------------------------------|
A|-0-----------0---0-----------0---|---------------------------------|
E|---------------------------------|-1-------------------------------|


[Chorus]

e|------------(0)------------------|---------------------------------|
B|-1-----------1-----------1-------|-0-----------0-----------0-------|
G|-------0-----------0---------0---|-------0-----------0---------0---|
D|---------------------------------|---------------------------------|
A|-3-----------3-----------3-------|-2-----------2-----------2-------|
E|---------------------------------|---------------------------------|

e|---------------------------------|-----------------------0---------|
B|-1-----------1-----------1-------|-1---------------1---1-----1-----|
G|-------2-----------2---------2---|---------------------------------|
D|-2-------------------------------|-3---------------------------3---|
A|-------------0-----------0-------|---------------------------------|
E|---------------------------------|---------------------------------|


e|---------------------------------|---------------------------------|
B|-1-----------1-----------1h3p1---|-0-----------0-----------0-------|
G|-------0-----------0-------------|-------0-----------0---------0---|
D|---------------------------------|---------------------------------|
A|-3-----------3-----------3-------|-2-----------2-----------2-------|
E|---------------------------------|---------------------------------|

e|---------------------------------|-------------0-------------------|
B|-1-----------1-----------1-------|-----------------1---------------|
G|-------2-----------2---------2---|-2-------------------------2-----|
D|-2-----------2-------------------|-3---------------------------3---|
A|---------------------------------|---------------------------------|
E|---------------------------------|---------------------------------|


[Bridge]

e|---------------------------------|---------------------------------|
B|---------------------------------|---------------------------------|
G|-------0---------------0---------|-------0---------------0---------|
D|-----2-----2---------2-----2-----|-----2-----2---------2-----2-----|
A|-3-----------3---3-----------3---|-2-----------2---2-----------2---|
E|---------------------------------|---------------------------------|

e|---------------------------------|---------------------------------|
B|---------------------------------|---------------------------------|
G|-------0---------------0---------|-------0---------0-------0-------|
D|-----2-----2---------2-----2-----|-----3-----3-----3-------3-------|
A|-0-----------0---0-----------0---|---------------------------------|
E|---------------------------------|-1-----------1---1-------1-------|


[Verse]

e|---------------------------------|---------------------------------|
B|---------------------------------|---------------------------------|
G|-------0---------------0---------|-------0---------------0---------|
D|-----2-----2---------2-----2-----|-----2-----2---------2-----2-----|
A|-3-----------3---3-----------3---|-2-----------2---2-----------2---|
E|---------------------------------|---------------------------------|

e|---------------------------------|---------------------------------|
B|---------------------------------|---------------------------------|
G|-------0---------------0---------|-------0---------------0---------|
D|-----2-----2---------2-----2-----|-----3-----3---------3-----3-----|
A|-0-----------0---0-----------0---|---------------------------------|
E|---------------------------------|-1-----------1---1-----------1---|

x3

e|---------------------------------|---------------------------------|
B|---------------------------------|---------------------------------|
G|-------0---------------0---------|-------0---------------0---------|
D|-----2-----2---------2-----2-----|-----2-----2---------2-----2-----|
A|-3-----------3---3-----------3---|-2-----------2---2-----------2---|
E|---------------------------------|---------------------------------|

e|---------------------------------|---------------------------------|
B|---------------------------------|---------------------------------|
G|-------0---------------0---------|-0-------------------------------|
D|-----2-----2---------2-----2-----|-3-------------------------------|
A|-0-----------0---0-----------0---|---------------------------------|
E|---------------------------------|-1-------------------------------|


[Chorus]

e|---------------------------------|---------------------------------|
B|-1-----------1-----------1-------|-0-----------0-----------0-------|
G|-------0-----------0---------0---|-------0-----------0---------0---|
D|---------------------------------|---------------------------------|
A|-3-----------3-----------3-------|-2-----------2-----------2-------|
E|---------------------------------|---------------------------------|

e|---------------------------------|---------------------------1-----|
B|-1-----------1-----------1-------|-1-------------------------------|
G|-------2-----------2---------0---|-------2-------------2-------2---|
D|-2-----------2-----------2-------|-3-----------3---------3---------|
A|---------------------------------|---------------------------------|
E|---------------------------------|---------------------------------|


e|---------------------------------|---------------------------------|
B|-1-----------1-----------1-------|-0-----------0-----------0h3p0---|
G|-------0-----------0---------0---|-------0-----------0-------------|
D|---------------------------------|---------------------------------|
A|-3-----------3-----------3-------|-2-----------2-----------2-------|
E|---------------------------------|---------------------------------|

e|---------------------------------|-------------0-------------------|-0-------------------------------||
B|-1-----------1-----------1---1---|-1---------------1---------1-----|-1-------------------------------||
G|-------2-----------2---------0---|-2-------------------2-------2---|-0-------------------------------||
D|-2-----------2---------------0---|-3---------------------3---------|-2-------------------------------||
A|---------------------------------|---------------------------------|-3-------------------------------||
E|---------------------------------|---------------------------------|---------------------------------||

He's basically always playing:
C  Em  Am7 Fsus2 
and in the chorus:
C  Em  Am  Fmaj7

For timing, imagine This over each measure:
-|-1---+---2---+---3---+---4---+---|



************************************

| (n)  Ghost note
| h    Hammer-on
| p    Pull-off 

************************************
Suggest correction
Give kudos to tab author, rate the tab!
1 2 3 4 5
comments
print report bad tab
guest
You may want to rate the tab now too:
select rating
Wanna post a correction for this tab? Suggest correction