Oops, an error
Loading. Please wait.

Narcotic tab

version 1
version 1

Whole song

Interactive

by Liquido
132,264 views 153 this week
5 commentsread comments
1 2 3 4 5
x 24
add to favorites
×
Save as Personal and add changes to this tab that will be seen only by you. Learn more ›
×
You can save this tab as Personal to edit and correct it or add notes. All changes will be seen only by you. Learn more »
launch autoscroll
font size
0
reset
how to read this tab
guitar tuner
backing track
0:00
0:00
edit
Autoscroll
slow
fast
+/-
esc
set tempo
stop
Author
Unregistered
Chords :

C# (xx664x) or better : (x-x-x-11-11-9)
D# (xx886x) or better : (x-x-x-13-13-11)
F# (xxx442)


[Intro]

The intro is normaly played by a piano , but it sounds cool on guitar , too .
After playing  two times the intro riff , the lead guitar plays the chorus to
the riff .

e|----------------2-1-2-1-2-1-2-1-6-4-6-4-6-4-6-4-------------|
B|6-4-6-4-6-4-6-4---------------------------------6-4-6-4-6-7-|
G|------------------------------------------------------------|
D|------------------------------------------------------------|
A|------------------------------------------------------------|
E|------------------------------------------------------------|


[Verse]

The verse is only played by the bass , but it's the same as in the chorus .
Just repeat it a couple of times .

   C#      D#      F#      C#

e|-----------------------------------------------------------------|   
B|-----------------------------------------------------------------|   
G|-----------------------------------------------------------------|
D|-----------------------------------------------------------------|
A|-4-4-4-4-4-4-4-4-6-6-6-6-6-6-6-6-----------------4-4-4-4-4-4-4-4-|
E|---------------------------------2-2-2-2-2-2-2-2-----------------|



[Chorus]

Repeat it a couple of times . Also with intro riff .

   C#      D#      F#      C#
e|-------------------------------------------------------------------|
B|-------------------------------------------------------------------|
G|-6-6-6-6-6-6-6-6-8-8-8-8-8-8-8-8-----------------6-6-6-6-6-6-6-6---|
D|-6-6-6-6-6-6-6-6-8-8-8-8-8-8-8-8-4-4-4-4-4-4-4-4-4-4-4-4-4-4-4-4---|
A|-4-4-4-4-4-4-4-4-6-6-6-6-6-6-6-6-4-4-4-4-4-4-4-4-4-4-4-4-4-4-4-4---|
E|---------------------------------2-2-2-2-2-2-2-2-------------------|


[Bridge]

The brigde is the part where he starts with : \"And I touched her face...\" .
You start palying on \"face\" and the second time on \"name\" . After the riff
you make a stop .

   D#      F#      C#
e|---------------------------------------------------|
B|---------------------------------------------------|
G|-8-8-8-8-8-8-8-8-----------------6-6-6-6-6-6-6-6---|
D|-8-8-8-8-8-8-8-8-4-4-4-4-4-4-4-4-6-6-6-6-6-6-6-6---|
A|-6-6-6-6-6-6-6-6-4-4-4-4-4-4-4-4-4-4-4-4-4-4-4-4---|
E|-----------------2-2-2-2-2-2-2-2-------------------|



************************************

| x  Dead note

************************************

            
            
Suggest correction
Creating personal tab
Creating personal tab
You can edit any tab online and save it as your Personal.

You can edit, replace or remove any tab part or add personal notes – all changes will be seen only by you.

Personal tabs can be accessed anytime from any device, even offline.
Learn more »
comments
print report bad tab
5 comments total. Showing first comments.
+1 reply
geluidsterroris 693 Oct 14, 2007 03:17 AM

I think it is pretty confusing

+1 reply
Luun 27 Jul 12, 2008 03:34 PM

Actually, i think the intro is more like:

e|--------------1-2-1-2-1-2-1-2-4-6-4-6-4-6-4-6-4-------------|
B|6-4-6-4-6-4-6---------------------------------6-4-6-4-6-7-|

0 reply
xdizzy12 10 Mar 25, 2014 09:47 AM

It is my opinion that this is wayyyy easier to play.

e|------------------------------4-6-4-6-4-6-4-6-4-------------|
B|6-4-6-4-6-4-6-5-6-5-6-5-6-5-6-------------------6-4-6-4-6-7-|

guest
Wanna post a correction for this tab? Suggest correction