Oops, an error
Loading. Please wait.

Narcotic tab

version 3
version 3

Whole song

Interactive

by Liquido
11,209 views 30 this week
1 commentread comment
1 2 3 4 5
x 5
add to favorites
×
Save as Personal and add changes to this tab that will be seen only by you. Learn more ›
×
You can save this tab as Personal to edit and correct it or add notes. All changes will be seen only by you. Learn more »
launch autoscroll
font size
0
reset
how to read this tab
guitar tuner
backing track
0:00
0:00
edit
Autoscroll
slow
fast
+/-
esc
set tempo
stop
Song: NARCOTIC
Artist: LIQUIDO
Tabbed By: Thoddor Kra

This is a very simple song and some of the tabbers got the power-chord version perfect. 
who did the chords used some difficult variations of C# and D#m. But they don't need to be.

Standard tuning eBGDAE, no capo.


[Intro]

e|-----------------------------------6-4-6-4-6-4-6-4---------------|
B|-6-4-6-4-6-4-6-4--7-6-7-6-7-6-7-6-------------------6-4-6-4-6--7-|
G|-----------------------------------------------------------------|
D|-----------------------------------------------------------------|
A|-----------------------------------------------------------------|
E|-----------------------------------------------------------------|


[Verse]

                strum
       C#     D#m        F#      C#
e|-----4-------6---------2-------4----|
B|-----6-------7---------2-------6----|
G|-----6-------8---------3-------6----|
D|-----6-------8---------4-------6----|
A|-----4-------6---------4-------4----|
E|-----4-------6---------2-------4----|

                 or
          use power-chords

       C#      D#        F#      C#
e|------------------------------------|
B|------------------------------------|
G|-----6-------8-----------------6----|
D|-----6-------8---------4-------6----|
A|-----4-------6---------4-------4----|
E|-----------------------2------------|

                 or
       fingerpicking version

       C#     D#m        F#      C#
e|------------------6-------------2-------------|
B|-6-----6-----7-----7-----------3----6-----6-7-|
G|----6-6-6-------8---8----3-------------6------|
D|-----6---6-------8---8------4-----------6-----|
A|-4-----------6---------------4------4---------|
E|-------------------------2--------------------|

P.S.
See the lyrics and listen to the song to get the timing right.

            
            
Suggest correction
Creating personal tab
Creating personal tab
You can edit any tab online and save it as your Personal.

You can edit, replace or remove any tab part or add personal notes – all changes will be seen only by you.

Personal tabs can be accessed anytime from any device, even offline.
Learn more »
comments
print report bad tab
1 comment total.
0 reply
daniel.clevejarn 12 Dec 01, 2016 11:46 AM

Isn't that D# supposed to be a D#m? if so, you just forgot the m

guest
You may want to rate the tab now too:
select rating
Wanna post a correction for this tab? Suggest correction