Oops, an error
Loading. Please wait.

Crossing Field Bass

version 1
version 1

Whole song

Interactive

by LISA
13,807 views 36 this week
2 commentsread comments
1 2 3 4 5
1 last vote to show rating
add to favorites
launch autoscroll
font size
0
reset
guitar tuner
×
Best way to learn
"Crossing Field"
Autoscroll
slow
fast
+/-
esc
set tempo
stop
Author
--------------------------------------------------------------------------------------------------
                         Lisa - Crossing Field
--------------------------------------------------------------------------------------------------
Tabbed by: declay
E-mail: d.z.lizama@hotmail.cl

Tuning: i think that's Drop D with +25 cents

http://www.youtube.com/watch?v=OB5SnThHjUY
This video is the song of the tab. Soon i'll make a cover.


  Intro:
  (1)     (3)
G|-------------------------------------------------------------------------------------------------|
D|-------------------------------------------------------------------------------------------------|
A|111111113333333355555553/557875------------------------------------------------------------------|
D|-------------------------------0-----------------------------------------------------------------|
Verse
                               (1)                            (14-12-10)
G|----------------------------------------------------------------------------|
D|--------------------------------------8h1087----------------10h12/141210----|
A|---------1(x16)3(x16)--------111/8h10-------8/10\8-333/10h12------------12--|
D|-0(x16)--------------0(x16)-------------------------------------------------|


Pre chorus

G|-------------------------------------------------------------------------------------------------|
D|---15-----14----7-------------/12---\10\---------------------------------------------------------|
A|/13--13-12--12-5-5--5--6(x16)-/13-13\12\---------------------------------------------------------|
D|-------------------5-5---------------------------------------------------------------------------|

G|-------------------------------------------------------------------------------------------------|
D|--------------------------------------------------------------------101210-----------------------|
A|5(x)0(x8)1(x8)3(x8)1(x16)0(x8)4(x8)-5(x)0(x8)1(x8)3(x8)-------101213------1312131210--0(x6)------|
D|-------------------------------------------------------8101213----------------------12-----2(x8)-|

                                                  POST CHORUS
G|-------------------------------------------------------------------------|
D|-------------------------------------------------------------------------|
A|----------55-577-788-800-0-1(x8)2(x8)-55--55--55---5(x8)0(x8)1(x8)3(x6)--|
D|5(x8)7(x8)---------------------------------------------------------------|


Verse:
  In this part, if u want u can slap the 0's (1)
G|-------------------------------------------------------------------------------------------------|
D|-----------------------------10h12p10------------------8-----------------------------------------|
A|-------------------------/1012-------10--11-11-11---898--33-33-33--------------------------------|
D|00---000-03h5p3-00---000------------------------------------------0h3p05p03p0--------------------|

G|-------------------------------------------------------------------------------------------------|
D|--------0--------0-35-----------8h9877----------12/141210----------------------------------------|
A|-------3-30-----3-3--5---111-8h9------8-333-9h12---------12--------------------------------------|
D|-0(x8)-----0(x4)---------------------------------------------------------------------------------|


Repeat the Pre Chorus Changing the

----------     ---15\14---|
/12---\10\     ---12\10---|
/13-13\12\ For -13--\12---|
----------     -----------|

And Also, repeat the chorus doing this at the end

---------------|
---232---------|
-25---5--------|
-------0-------|


bridge
     only 1, not 11.
G|---------------------------------------------------------------------------------567-------------|
D|------------------------------------3h5p3-----------------------------------55-77----------------|
A|0--1-11111-111-(x3)-------3h5p3----3-----5----0--1-11111-111-(x3)--55-77-88----------------------|
D|---------------------55555-----5777-------0------------------------------------------------------|

This part is very fun xD

G|--------------------------------------------------------------------------------------|
D|--------------------------------------------------------------02023-------------------|CONTINUE
A|-------35-0000h3530--111-------333------1110111---------000000------5555555500000010--|  DOWN!
D|0000-57------------0----5h7p5\3---5h7p0--------500305030------------------------------|

G|----------------------------------------------|
D|8887888---------------------101210------------|
A|-------33335555-------101213------1312131210--|
D|---------------8101213----------------------12|
                                                                         OUTRO
G|-------------------------------------------------------------------------------------------|
D|-------------------------------------------------------------------------------------------|
A|000000-----05-----------5555777788880000-1110-1h3331----------3/5-35---5(x8)0(x8)1(x8)3(x6)|
D|------22225---5(x8)7(x8)---------------------3------3-00-00-00---7--0----------------------|



| /  slide up
| \  slide down
| h  hammer-on
| p  pull-off
| ~  vibrato
| +  harmonic
| x  Mute note
=============================================================================
Suggest correction
Give kudos to tab author, rate the tab!
1 2 3 4 5
comments
print report bad tab
2 comments total.
0 reply
iffanalif 10 Feb 08, 2013 03:20 PM

The tab is still a lot wrong, or incomplete, it is not as simple as this, please be fixed, if it does not know the full tab, search on youtube

guest
You may want to rate the tab now too:
select rating
Wanna post a correction for this tab? Suggest correction