Oops, an error
Loading. Please wait.

Crossing Field bass

version 2
version 2

Whole song

Interactive

by LISA
667 views 3 this week
no commentswrite comment
1 2 3 4 5
x 3
add to favorites
×
Save as Personal and add changes to this tab that will be seen only by you. Learn more ›
×
You can save this tab as Personal to edit and correct it or add notes. All changes will be seen only by you. Learn more »
launch autoscroll
font size
0
reset
guitar tuner
edit
Autoscroll
slow
fast
+/-
esc
set tempo
stop
Intro 0:06
G|-----------------------------------------------------------------|
D|-------------------------------------------------------2-3-2-----|
A|-1-1-1-1-1-1-1-1-3-3-3-3-3-3-3-3-5-5-5-5-5-5-5-5---5-5-------3-0-|
D|-----------------------------------------------------------------|
   1 + 2 + 3 + 4 + 1 + 2 + 3 + 4 + 1 + 2 + 3 + 4 + 1 + 2 + 3 + 4 +

Verse 0:12
G|-----------------------------------------------------------------|
D|-----------------------------------------------------------------|
A|-----------------------------------------------------------------|
D|-0-0-0-0-0-0-0-0-0-0-0-0-0-0-0-0-0-0-0-0-0-0-0-0-0-0-0-0/12-/12--|
   1 + 2 + 3 + 4 + 1 + 2 + 3 + 4 + 1 + 2 + 3 + 4 + 1 + 2 + 3 + 4 +

G|-----------------------------------------------------------------|
D|-----3-------------3-2-3-----3-------5-----5---------------------|
A|-1-1---1-1-1-0-1-1-------1-1---1-3-3---3-3---3---3---------------|
D|---------------------------------------------------0-2-3-5-3-5---|
   1 + 2 + 3 + 4 + 1 + 2 + 3 + 4 + 1 + 2 + 3 + 4 + 1 + 2 + 3 + 4 +

G|-----------------------------------------------------------------|
D|-----------------------------------------------------------------|
A|-------------------------------------------------------------3-\-|
D|-0-0-0-0-0-0-0-0-0-0-0-0-0-2-3-5-0-0-0-0-0-0-0-0-0-0-0-0-0-r-----|
   1 + 2 + 3 + 4 + 1 + 2 + 3 + 4 + 1 + 2 + 3 + 4 + 1 + 2 + 3 + 4 +

G|---------------------------------------------------------------------------|
D|-------------8-8-10-10-8-7-8-7----------------10---10-10-12-10-------------|
A|-1-1-1-1-8-8-------------------8-7-3-3-3-3-10------------------12----------|
D|--------------------------------------------------------------------10-8-7-|
   1 + 2 + 3 + 4 + 1  +  2 + 3 + 4 + 1 + 2 + 3  +  4 +  1  +  2  +  3 +  4 +

Pre Chorus 0:33
G|-------------------------------------------------------7---------|
D|-------------8-------------------------------3-4-5---------------|
A|-------8---------------------7---5-----5-------------------------|
D|-8---------------7-----7-------------------------------------5---|
   1 + 2 + 3 + 4 + 1 + 2 + 3 + 4 + 1 + 2 + 3 + 4 + 1 + 2 + 3 + 4 +

G|-----------------------------------------------------------------------14-----12------------------|
D|-----------------------------------------------------------------8--/--15-----14------------------|
A|---------------------------------------------/-6---6-6--------------------------------------------|
D|-1-1---1---1---1---1-1-------1-1-1-1---1---1-------------1--1--1----------------------------------|
   1 + 2 + 3 + 4 + 1 + 2 + 3 + 4 + 1 + 2 + 3 + 4 + 1 + 2 + 3 + 4 + 1 + 2 +  3 + 4  + 1 + 2 + 3 + 4 +

Chorus 0:46
G|------------------------------------------------------------------|
D|---------5-7-----8-10-7-8-----------------5-----------2-----3-2-3-|
A|-----7-8-----7-8----------7-8---------8-8---8-7-5-3-3---3-3-------|
D|-0-0--------------------------7-7-8-8-----------------------------|
   1 + 2 + 3 + 4 + 1 +  2 + 3 + 4 + 1 + 2 + 3 + 4 + 1 + 2 + 3 + 4 +

G|---------------------------------------------------------6-7-9---|
D|-8-8-7-8-8-8-7---------------------------------------------------|
A|---------------8-----5-5-7-7-8---------------------5-7-8---------|
D|-----------------8-8-------------2-2-2-2-2-2-2-7-----------------|
   1 + 2 + 3 + 4 + 1 + 2 + 3 + 4 + 1 + 2 + 3 + 4 + 1 + 2 + 3 + 4 +

0:56
G|-----------------------------------------------------------------|
D|-----------------------------2-3/8-8-7-8-8-8-7-------5-------5---|
A|-----------------0-0-0-0-0-3-------------------8-3-3---3-4-4---4-|
D|-0-0-0-0-0-0-2-3-------------------------------------------------|
   1 + 2 + 3 + 4 + 1 + 2 + 3 + 4 + 1 + 2 + 3 + 4 + 1 + 2 + 3 + 4 +

G|-------------5-7-7-----------------------------------------------|
D|-------5-7-8-------8-7-8-7-7-5---------------------8-7-5---5-7-8-|
A|-5-7-8-------------------------8-------------------------8-------|
D|---------------------------------2-2-2-2-2-2-2-7-----------------|
   1 + 2 + 3 + 4 + 1 + 2 + 3 + 4 + 1 + 2 + 3 + 4 + 1 + 2 + 3 + 4 +

1:07
G|-----------------------------------------------------------------|
D|-----------------------------------------------------------------|
A|-----------------0-0-0-0-0-3-------------------------------------|
D|-5-5-5-5-5-5-5-5---------------0---0---2---2---3---3---5---5-5-5-|
   1 + 2 + 3 + 4 + 1 + 2 + 3 + 4 + 1 + 2 + 3 + 4 + 1 + 2 + 3 + 4 +

G|-----------------------------5-5---------------------------------|
D|---------------------5---5-5-------------------------------------|
A|-1---1-1-1-1-1-1-3-3---3-----------------------------------------|
D|---------------------------------0-0---0-0---0-0-----------------|
   1 + 2 + 3 + 4 + 1 + 2 + 3 + 4 + 1 + 2 + 3 + 4 + 1 + 2 + 3 + 4 +

Interlude 1:18
G|---------------------------------------------------------------------------------|
D|---------------------------------------------------------------------------------|
A|-----------------0-0-0-0-0-0-0-0-1-1-1-1-1-1-1-1-3-3-3-3-3-3---------------------|
D|-0-0-0-0-0-0-0-0-----------------------------------------------------------------|
   1 + 2 + 3 + 4 + 1 + 2 + 3 + 4 + 1 + 2 + 3 + 4 + 1 + 2 + 3 + 4 + 1 + 2 + 3 + 4 +

Verse 1:24
G|--------------------------------------------------------------------|
D|-----------------------------------------------------------10-------|
A|-----------------------------------------------------10-12------3---|
D|-0-0-----------0---0-0-----2-3-5-0-0-----------0---0----------------|
   1 + 2 + 3 + 4 + 1 + 2 + 3 + 4 + 1 + 2 + 3 + 4 + 1 + 2  +  3  + 4 +

G|-----------------------------------------------------------------|
D|---------------------------5-7---------------5-------------------|
A|-1-1---1-1---1-1-------7-8-------3-3---3-3-----3-------------3---|
D|---------------------------------------------------2-2---3-------|
   1 + 2 + 3 + 4 + 1 + 2 + 3 + 4 + 1 + 2 + 3 + 4 + 1 + 2 + 3 + 4 +

1:36
G|-----------------------------------------------------------------|
D|---------------------------------------------------3-5-----------|
A|---------------3-5-4-3-4-----------------------3-5-----3-5---3---|
D|-0-0-0-0-0-0-0-----------0-2-3-5-0-0-0-0-0-0-0-------------------|
   1 + 2 + 3 + 4 + 1 + 2 + 3 + 4 + 1 + 2 + 3 + 4 + 1 + 2 + 3 + 4 +

G|-------------------------------------------------------------------------|
D|-------------7-8--h10--8---7----------------10---12---14---12-10-10------|
A|-1-1-1-1-8-8-----------------8---3-3-3-3-10-------------------------10---|
D|-------------------------------------------------------------------------|
   1 + 2 + 3 + 4 + 1 + 2 + 3 + 4 + 1 + 2 + 3  +  4 +  1 +  2 +  3  +  4  +

Pre Chorus 1:46
G|-------------------------------------------5-7-5-4---------------|
D|-------------8---------------------------7-------------5---------|
A|-------8-8-8-----------------7---5-----5-------------------------|
D|-8---------------7-----7-7-7-------------------------------------|
   1 + 2 + 3 + 4 + 1 + 2 + 3 + 4 + 1 + 2 + 3 + 4 + 1 + 2 + 3 + 4 +

G|-----------------------------------------------------------------------14-----12------------------|
D|-----------------------------------------------------------------8--/--15-----14------------------|
A|------------------/6-6-6-6---6-------------------/-6-6--------------------------------------------|
D|-1-1---1---1---1-----------------1-1---1---1---1---------1--1--1---------------------------12-\---|
   1 + 2 + 3 + 4 + 1 + 2 + 3 + 4 + 1 + 2 + 3 + 4 + 1 + 2 + 3 + 4 + 1 + 2 +  3 + 4  + 1 + 2 + 3 + 4 +

Chorus 2:00
G|------------------------------------------------------------------|
D|---------5-7-----8-10-7-8-----------------5-----------2-----3-2-3-|
A|-----7-8-----7-8----------7-8---------8-8---8-7-5-3-3---3-3-------|
D|-0-0--------------------------7-7-8-8-----------------------------|
   1 + 2 + 3 + 4 + 1 +  2 + 3 + 4 + 1 + 2 + 3 + 4 + 1 + 2 + 3 + 4 +

G|---------------------------------------------------7-9-7---6-7-9-|
D|-8-8-7-8-8-8-7-------------------------------------------9-------|
A|---------------8-----5-5-7-7-8-----------------------------------|
D|-----------------8-8-------------2-2-2-2-2-2-2-7-----------------|
   1 + 2 + 3 + 4 + 1 + 2 + 3 + 4 + 1 + 2 + 3 + 4 + 1 + 2 + 3 + 4 +

2:10
G|-----------------------------------------------------------------|
D|-----------------------------2-3/8-8-7-8-8-8-7-------5-------5---|
A|-----------------0-0-0-0-0-3-------------------8-3-3---3-4-4---4-|
D|-0-0-0-0-0-0-2-3-------------------------------------------------|
   1 + 2 + 3 + 4 + 1 + 2 + 3 + 4 + 1 + 2 + 3 + 4 + 1 + 2 + 3 + 4 +

G|-------------5-7-7-----------------------------------------------|
D|-------5-7-8-------8-7-8-7-7-5---------------------8-7-5---5-7-8-|
A|-5-7-8-------------------------8-------------------------8-------|
D|---------------------------------2-2-2-2-2-2-2-7-----------------|
   1 + 2 + 3 + 4 + 1 + 2 + 3 + 4 + 1 + 2 + 3 + 4 + 1 + 2 + 3 + 4 +

2:21
G|-----------------------------------------------------------------|
D|-----------------------------------------------------------------|
A|-----------------0-0-0-0-0-3-------------------------------------|
D|-5-5-5-5-5-5-5-5---------------0---0---2---2---3---3---5---5-5-5-|
   1 + 2 + 3 + 4 + 1 + 2 + 3 + 4 + 1 + 2 + 3 + 4 + 1 + 2 + 3 + 4 +

G|---------------------------------------------------------------------|
D|-------3-3-3---3-10-10------10---------------------0-----0-2-3-2-----|
A|-1---1-------1-----------10----------------------0-----0---------3---|
D|-------------------------------------0-0---0-0-----------------------|
   1 + 2 + 3 + 4 + 1  +  2 +  3  + 4 + 1 + 2 + 3 + 4 + 1 + 2 + 3 + 4 +

Rest

Solo 2:37
G|-----------------------------------------------------------------------|
D|-------8-----8---8---8---8---8-7-8-7-8-8-----8---8---8---8---8-7-8-7-8-|
A|-0-----------------8-------------------------------8-------------------|
D|-----------------------------------------------------------------------|
   + 4 + 1 + 2 + 3 + 4 + 1 + 2 + 3 + 4 + 1 + 2 + 3 + 4 + 1 + 2 + 3 + 4 +

G|----------------------------------------------------------------------------|
D|-7-8---8---8---8---8---8------------------------------8-10---10-12-10-------|
A|-------------8-------------------8-10---10-10-12---10-----------------13-12-|
D|---------------------------8-7----------------------------------------------|
   1 + 2 + 3 + 4 + 1 + 2 + 3 + 4 + 1 +  2 +  3  +  4 +  1 +  2 +  3  +  4  +

2:48
G|-----------------------------------------------------------9-10-12-|
D|-8----h10---8-8---7-8-7-10-----7-8-10-10-10-10-8-8-8-10-12---------|
A|-----8----------8--------------------------------------------------|
D|-------------------------------------------------------------------|
   1 + 2 +  3 + 4 + 1 + 2 +  3 + 4 + Triplet  Triplet Triplet Triplet

G|------------------------------------------------------------------------|
D|-8------------7-8-8---10---8---7-8-------------------8-10---------10-10-|
A|---------8-10----------------------5-5-5-7-7-7-8---8--------10-10-------|
D|------------------------------------------------------------------------|
   1 + 2 + 3 +  4 + 1 + 2  + 3 + 4 + 1 + 2 + 3 + 4 + 1 + 2  + 3  +  4  +

Rest

Chorus 3:13
G|------------------------------------------------------------------|
D|---------5-7-----8-10-7-8-----------------5-----------2-----3-2-3-|
A|-----7-8-----7-8----------7-8---------8-8---8-7-5-3-3---3-3-------|
D|-0-0--------------------------7-7-8-8-----------------------------|
   1 + 2 + 3 + 4 + 1 +  2 + 3 + 4 + 1 + 2 + 3 + 4 + 1 + 2 + 3 + 4 +

G|-----------------------------------------------------------------|
D|-8-8-7-8-8-8-7-----------------------------------------------5-7-|
A|---------------8-----5-5-7-7-8---------------------5-7-8-7-------|
D|-----------------8-8-------------2-2-2-2-2-2-2-7-----------------|
   1 + 2 + 3 + 4 + 1 + 2 + 3 + 4 + 1 + 2 + 3 + 4 + 1 + 2 + 3 + 4 +

3:24
G|-----------------------------------------------------------------|
D|-----------------------------2-3/8-8-7-8-8-8-7-------5-------5---|
A|-----------------0-0-0-0-0-3-------------------8-3-3---3-4-4---4-|
D|-0-0-0-0-0-0-2-3-------------------------------------------------|
   1 + 2 + 3 + 4 + 1 + 2 + 3 + 4 + 1 + 2 + 3 + 4 + 1 + 2 + 3 + 4 +

G|-------------5-7-7-----------------------------------------------|
D|-------5-7-8-------8-7-8-7-7-5---------------------8-7-5---5-7-8-|
A|-5-7-8-------------------------8-------------------------8-------|
D|---------------------------------2-2-2-2-2-2-2-7-----------------|
   1 + 2 + 3 + 4 + 1 + 2 + 3 + 4 + 1 + 2 + 3 + 4 + 1 + 2 + 3 + 4 +

3:35
G|-----------------------------------------------------------------|
D|-----------------------------------------------------------------|
A|-----------------0-0-0-0-0-3---------------------------------3---|
D|-5-5-5-5-5-5-5-5---------------0---0-0-0---2-0-3---3-3-5---5-----|
   1 + 2 + 3 + 4 + 1 + 2 + 3 + 4 + 1 + 2 + 3 + 4 + 1 + 2 + 3 + 4 +

G|----------------------------------------------------------------5-----|
D|-8---8-7---------10---10-10----------------------------12-\-5-7---7-\-|
A|-----------8----------------------------------------------------------|
D|------------------------------10-----0-0---0-0---0-0------------------|
   1 + 2 + 3 + 4 + 1  + 2  +  3 +  4 + 1 + 2 + 3 + 4 + 1 +  2 + 3 + 4 +
  
Outro 
G|-----------------------------------------------------------------|
D|-----------------------------------------------------------------|
A|-----------------0-0-0-0-0-0-0-0-1-1-1-1-1-1-1-1-3-3-3-3-3-3-3-3-|
D|-0-0-0-0-0-0-0-0-------------------------------------------------|
   1 + 2 + 3 + 4 + 1 + 2 + 3 + 4 + 1 + 2 + 3 + 4 + 1 + 2 + 3 + 4 + 

G|---------------------------------------------------------------------------------|
D|---------------------------------------------------------------------------------|
A|-----------------0-0-0-0-0-0-0-0-1-1-1-1-1-1-1-1-3-3-3-3-3-3---1-----------------|
D|-0-0-0-0-0-0-0-0-----------------------------------------------------------------|
   1 + 2 + 3 + 4 + 1 + 2 + 3 + 4 + 1 + 2 + 3 + 4 + 1 + 2 + 3 + 4 + 1 + 2 + 3 + 4 +
Tabbed by Dave Vucko

G|-----------------------------------------------------------------|
D|-----------------------------------------------------------------|
A|-----------------------------------------------------------------|
D|-----------------------------------------------------------------|
   1 + 2 + 3 + 4 + 1 + 2 + 3 + 4 + 1 + 2 + 3 + 4 + 1 + 2 + 3 + 4 +

            
            
Suggest correction
Creating personal tab
Creating personal tab
You can edit any tab online and save it as your Personal.

You can edit, replace or remove any tab part or add personal notes – all changes will be seen only by you.

Personal tabs can be accessed anytime from any device, even offline.
Learn more »
Give kudos to tab author, rate the tab!
1 2 3 4 5
comments
print report bad tab
guest
You may want to rate the tab now too:
select rating
Wanna post a correction for this tab? Suggest correction