Oops, an error
Loading. Please wait.

Crossing Field tab

version 2
version 2

Whole song

Interactive

by LISA
3,288 views 21 this week
1 commentread comment
1 2 3 4 5
x 4
add to favorites
×
Save as Personal and add changes to this tab that will be seen only by you. Learn more ›
×
You can save this tab as Personal to edit and correct it or add notes. All changes will be seen only by you. Learn more »
launch autoscroll
font size
0
reset
how to read this tab
guitar tuner
edit
Autoscroll
slow
fast
+/-
esc
set tempo
stop
Author
Difficulty
Lisa - Crossing Field  SWORD ART ONLINE INTRO SONG lead guitar

Intro:
e|------------8------------10--10-p-8----------6-------------|
B|--6--8--10-------6-----------------------10-----10--8--10--|
G|--------------------9--------------------------------------|
D|-----------------------------------------------------------|
A|-----------------------------------------------------------|
E|-----------------------------------------------------------|
 
e|--13----12--8--8-h-10----10--10--10--10--|
B|-----------------------------------------|
G|-----------------------------------------|
D|-----------------------------------------|
A|-----------------------------------------|
E|-----------------------------------------| 

Verse/Estrofa:
e|-------------------------------------------------------|
B|-------------8------------------------8----------------|
G|--10--9--10-----7----7--9--10--9--10-----7------7--10--|
D|-------------------------------------------------------|
A|-------------------------------------------------------|
E|-------------------------------------------------------|
 
e|--8--------------------|
B|-----------------------|
G|-----10------9--7------|
D|-------------------10--|
A|-----------------------|
E|-----------------------|

e|-----------------------------------------8----8---------|--------------------------|
B|-------------8------------------------8-----------------|--8--8-p-6-------------8--|
G|--10--9--10-----7----7--9--10--9--10-------------10--9--|----------------9--10-----|
D|--------------------------------------------------------|--------------------------|
A|--------------------------------------------------------|--------------------------|
E|--------------------------------------------------------|--------------------------| 

Pre-Chorus/Pre-Estribillo:
e|--------------------------------------|
B|--10--------8-------------------------|
G|--------10-----9------7--10-------10--|
D|------------------10-----------9------|
A|--------------------------------------|
E|--------------------------------------|
 
e|-----------------------------------------------|------------------|
B|--8------8--10--11----8------8------8--13--11--|--8----10--6-h-8--|
G|-----10------------------10-----10-------------|------------------|
D|-----------------------------------------------|------------------|
A|-----------------------------------------------|------------------|
E|-----------------------------------------------|------------------|

Chorus/Estribillo:
e|------------8------------10--10-p-8----------6-----------------|
B|--6--8--10-------6-----------------------10-----10--8--11--10--|
G|--------------------9------------------------------------------|
D|---------------------------------------------------------------|
A|---------------------------------------------------------------|
E|---------------------------------------------------------------|
 
e|-----------------------------------------------10------|
B|--8--10--8--10--8--10--8--10----8--10--10--10------10--|
G|-------------------------------------------------------|
D|-------------------------------------------------------|
A|-------------------------------------------------------|
E|-------------------------------------------------------|
 
e|------------8------------10--10-p-8----------6---------8------|
B|--6--8--10-------6-----------------------10-----10--8-----10--|
G|--------------------9-----------------------------------------|
D|--------------------------------------------------------------|
A|--------------------------------------------------------------|
E|--------------------------------------------------------------|
 
e|-----------------------------------8----------10-----|
B|--8--10--8--10--8--10--8--10----8-----11--10------8--|
G|-----------------------------------------------------|
D|-----------------------------------------------------|
A|-----------------------------------------------------|
E|-----------------------------------------------------|
 
e|---------8------------------------------|
B|--8---------10------11--10--8--6--8-----|
G|-----10------------------------------7--|
D|----------------------------------------|
A|----------------------------------------|
E|----------------------------------------|

e|------------------------------------------------------------------------|
B|--10--10--10--10--10--8------------8------------------------------------|
G|-------------------------10-----------10--9-------7--7----7--7----7--7--|
D|-----------------------------10--------------10-------------------------|
A|------------------------------------------------------------------------|
E|------------------------------------------------------------------------|

Outro:
e|--------------------------------------------------------------------|
B|--10---------------------------------10-----------------------------|
G|------12--10--12--9----------------------12--10--12--9----------10--|
D|---------------------10--14--12-------------------------10--14------|
A|--------------------------------------------------------------------|
E|--------------------------------------------------------------------|


ENJOY :D
************************************

| /   slide up
| \   slide down
| h   hammer-on
| p   pull-off
| ~   vibrato
| +   harmonic
| x   Mute note
| b   Bend
| pb  Pre-bend
| br  Bend release
| pbr Pre-bend release
| brb Bend release bend

************************************

            
            
Suggest correction
Creating personal tab
Creating personal tab
You can edit any tab online and save it as your Personal.

You can edit, replace or remove any tab part or add personal notes – all changes will be seen only by you.

Personal tabs can be accessed anytime from any device, even offline.
Learn more »
comments
print report bad tab
1 comment total.
0 reply
xraisingsplashx 10 Mar 02, 2016 11:39 AM

Lisa - Crossing Field SWORD ART ONLINE INTRO SONG lead guitar

Intro:
e|------------8------------10--10-p-8-----------------------|
B|--6--8--10-------6-----------------------10--11---10--8--10--|
G|--------------------9--------------------------------------|
D|-----------------------------------------------------------|
A|-----------------------------------------------------------|
E|-----------------------------------------------------------|

e|--13----12--8--8-h-10----10--10--10--10--|
B|-----------------------------------------|
G|-----------------------------------------|
D|-----------------------------------------|
A|-----------------------------------------|
E|-----------------------------------------|

Verse/Estrofa:
e|-------------------------------------------------------|
B|-------------8------------------------8----------------|
G|--10--9--10-----7----7--9--10--9--10-----7------7--10--|
D|-------------------------------------------------------|
A|-------------------------------------------------------|
E|-------------------------------------------------------|

e|--8--------------------|
B|-----------------------|
G|-----10------9--7------|
D|-------------------10--|
A|-----------------------|
E|-----------------------|

e|-----------------------------------------8----8---------|--------------------------|
B|-------------8------------------------8-----------------|--8--8-p-6-------------8--|
G|--10--9--10-----7----7--9--10--9--10-------------10--9--|----------------9--10-----|
D|--------------------------------------------------------|--------------------------|
A|--------------------------------------------------------|--------------------------|
E|--------------------------------------------------------|--------------------------|

Pre-Chorus/Pre-Estribillo:
e|--------------------------------------|
B|--10--------8-------------------------|
G|--------10-----9------7--10-------10--|
D|------------------10-----------9------|
A|--------------------------------------|
E|--------------------------------------|

e|-----------------------------------------------|------------------|
B|--8------8--10--11----8------8------8--13--11--|--8----10--6-h-8--|
G|-----10------------------10-----10-------------|------------------|
D|-----------------------------------------------|------------------|
A|-----------------------------------------------|------------------|
E|-----------------------------------------------|------------------|

Chorus/Estribillo:
e|------------8------------10--10-p-8---------------------------|
B|--6--8--10-------6-----------------------10--11---10--8--11--10--|
G|--------------------9------------------------------------------|
D|---------------------------------------------------------------|
A|---------------------------------------------------------------|
E|---------------------------------------------------------------|

e|-----------------------------------------------10------|
B|--8--10--8--10--8--10--8--10----8--10--10--10------10--|
G|-------------------------------------------------------|
D|-------------------------------------------------------|
A|-------------------------------------------------------|
E|-------------------------------------------------------|

e|------------8------------10--10-p-8----------6---------8------|
B|--6--8--10-------6-----------------------10-----10--8-----10--|
G|--------------------9-----------------------------------------|
D|--------------------------------------------------------------|
A|--------------------------------------------------------------|
E|--------------------------------------------------------------|

e|-----------------------------------8----------10-----|
B|--8--10--8--10--8--10--8--10----8-----11--10------8--|
G|-----------------------------------------------------|
D|-----------------------------------------------------|
A|-----------------------------------------------------|
E|-----------------------------------------------------|

e|---------8------------------------------|
B|--8---------10------11--10--8--6--8-----|
G|-----10------------------------------7--|
D|----------------------------------------|
A|----------------------------------------|
E|----------------------------------------|

e|------------------------------------------------------------------------|
B|--10--10--10--10--10--8------------8------------------------------------|
G|-------------------------10-----------10--9-------7--7----7--7----7--7--|
D|-----------------------------10--------------10-------------------------|
A|------------------------------------------------------------------------|
E|------------------------------------------------------------------------|

Outro:
e|--------------------------------------------------------------------|
B|--10---------------------------------10-----------------------------|
G|------12--10--12--9----------------------12--10--12--9----------10--|
D|---------------------10--14--12-------------------------10--1

guest
You may want to rate the tab now too:
select rating
Wanna post a correction for this tab? Suggest correction