Oops, an error
Loading. Please wait.

My Most Precious Treasure Tab

version 1
version 1

Whole song

by LISA
23,709 views 36 this week
no commentswrite comment
1 2 3 4 5
excellent!
x 7
add to favorites
launch autoscroll
font size
0
reset
how to read this tab
guitar tuner
Tab Pro tools
  • play this tab
  • loop segment
  • change instrument
  • show fretboard
  • metronome
×
Best way to learn
"My Most Precious Treasure"
Autoscroll
slow
fast
+/-
esc
set tempo
stop
Contributor
Difficulty
intermediate
AngelBeats Theme Song
Song: My Most Precious Treasure
Artist: Lisa
Tabbed by: deadlynumber7(admiral_ragnarok45@yahoo.com)


Standard Tuning

Intro:

e|--1------1--1------1--1------1--1-11-1---1------1--1------1--1-----------1-1---|
B|--1---------1---1-----1----1----1-11-1---1----1----1--1-1----3----3------3-1---|
G|--3----3----0--0------2---------2-33-2---3---------0---------2--2---2----2-2---|
D|--3--3------2---------2--2------3-33-3---3--3------2---------0--------0--0-3---|
A|--1---------3---------0---------3-11-3---1---------3-----------------------3---|
E|--------------------------------1-11-1-------------------------------------1---|


1st Verse:

e|--------------------------------------------3-1--------------------1-1---------|
B|-------1------------1-1--------1-------1----3-1----1---------1-1---3-2---------|
G|------------------0----0---------2----2-----5-3------3-----0----0--2-2---------|
D|-----3----3-----2------------2-------3------5-3--3-------2---------0-0--4-5p4--|
A|--1-----------3-----------0-----------------3-1--------3----------------5----5-|
E|-----------------------------------1-------------------------------------------|


Refrain:

e|-----------------------------------------5-53-------------5------4--------3-3-|
B|--------1-----------1--------1----1--6p5-6-53------1-------6-------4------3-3-|
G|----------3------------2--------3--------7-75----3--3----7--7-------5---3-5-5-|
D|----3-------3----3----------3----3-------7-75---3-3--3--7-------6------3--5-5-|
A|--1-----------------------1--------------5-53--1-------5-------6------1---3-3-|
E|---------------1----------------------------------------------4---------------|

-1-------------------------1-3--|
-1--1--------1-------1-----1-3--|
-3---3--------3----3--3-3--3-5--|
-3-3--3--3--3--3----3--3-3-3-5--|
-1--------1-------1--------1-3--|
--------------------------------|


Chorus:

e|--0--0-0--0--0-0--0--0-0--0--0----0--0-0--0--0-0--0----0--0--0----|
B|--0--0-0--3--3-3--0--0-0--0--0----0--0-0--3--3-3--0----0--0--0----|
G|--2--2-2--2--2-2--1--1-1--2--1h2--2--2-2--2--2-2--1--2-1--2--1h2--|
D|--2--2-2--0--0-0--2--2-2--2--2----2--2-2--0--0-0--2--2-2--2--2----|
A|--0--0-0--0--0-0--2--2-2--0--0----0--0-0--0--0-0--2--0-2--0--0----|
E|------------------0--0-0--------------------------0----0----------|

e|--0--0-0--0--0-0--0--0-0--0--0-0--0--0-0--0--0-0--0----0--0-00--|
B|--0--0-0--3--3-3--0--0-0--0--0-0--0--0-0--3--3-3--0----0--0-00--|
G|--2--2-2--2--2-2--1--2-1--2--1-2--2--2-2--2--2-2--1--2-1--2-22--|
D|--2--2-2--0--0-0--2--2-2--2--2-2--2--2-2--0--0-0--2--2-2--2-22--|
A|--0--0-0--0--0-0--2--0-2--0--0-0--0--0-0--0--0-0--2--0-2--0-00--|
E|------------------0----0--------------------------0----0--------|




Intro: (Different but not that far from the first one)

e|--1------1--1------1--1------1--1-11-1---1------1--1------1--1-1-1-1--|
B|--1---------1---1-----1---1-----1-11-1---1----1----1----1----3-2-1-1--|
G|--3----3----0--0------2--2------2-33-2---3---------0--0------2-2-2-2--|
D|--3--3------2---------2---------3-33-3---3--3------2---------0-0-0-3--|
A|--1---------3---------0---------3-11-3---1---------3---------------3--|
E|--------------------------------1-11-1-----------------------------1--|


2nd Verse:

e|-----------------------------------------3-1--------------------1-1--------|
B|-------1----------1---------1-------1----3-1----1---------1-1---3-2--------|
G|----------------0-------------2----2-----5-3------3-----0----0--2-2--------|
D|-----3--------2-----2-----2-------3------5-3--3-------2---------0-0--4-5-4-|
A|--1---------3----------0-----------------3-1--------3----------------5----5|
E|--------------------------------1------------------------------------------|


Refrain:

e|-----------------------------------------5-53-------------5------4--------3-3-|
B|--------1-----------1---------1---1--6p5-6-53------1-------6-------4------3-3-|
G|----------3-------2----2-----3--3--------7-75----3--3----7--7-------5---3-5-5-|
D|----3-------3----3------3---3----3-------7-75---3-3--3--7-------6------3--5-5-|
A|--1-----------------------1--------------5-53--1-------5-------6------1---3-3-|
E|---------------1----------------------------------------------4---------------|

-1-------------------------------------1-3--|
-1--1--------1--------1---------1------1-3--|
-3---3--------3--------3-3-------3-----3-5--|
-3-3--3--3--3--3--3--3--3---3--3--3--3-3-5--|
-1--------1--------1---------1---------1-3--|
--------------------------------------------|


				[Repeat Chorus]


Solo: 2x

e|-------------------------------------------------------------------------------|
B|--------------------2-----------------2-----------------2----------------------|
G|--2--1-2--------2-4----2--1-2-----2-4----2--1-2-----2-4----2-2h4-2-------------|
D|---------0h2-0----------------2-0---------------2-0----------------2-0---------|
A|-----------------------------------------------------------------------4-2-0-0-|
E|-------------------------------------------------------------------------------|


				[Repeat Chorus]


Final Chorus: 2x

e|--6-66--6-66--1-11--1-1----|
B|--6-66--6-66--1-11--1-1----|
G|--7-77--8-88--2-22--2-1h2--|
D|--8-88--8-88--3-23--2-2----|
A|--8-88--6-66--3-13--1-1----|
E|--6-66--6-66--1-11--1-1----|


Solo: 3x

e|----------------------------------------------------------------|
B|----------------------------------------------------------------|
G|--------------------9--------------------9--------------------9-|
D|--8--7-8-----8-8/10----8--7-8-----8-8/10----8--7-8-----8-8/10---|
A|---------8\6------------------8\6------------------8\6----------|
E|----------------------------------------------------------------|

----------------------|
----------------------|
----------------------|
-8-8/10-8-------------|
----------8-6-5-------|
----------------8-66--|


Ending:

e|----------------------8-10~---------------------8-8/10~---------------------8-10~|
B|--10/11-10-11------11-------10/11-10-11------11---------10/11-10-11------11------|
G|--------------10\8----------------------10\8------------------------10\8---------|
D|---------------------------------------------------------------------------------|
A|---------------------------------------------------------------------------------|
E|---------------------------------------------------------------------------------|

e|--------------------------------------------------|\
B|-(11)-11/13-11------------------------------------|\ \
G|---------------8/10-8--------------|  \do this----|\ 3x
D|----------------------10/12-10~-8~-|  /[remove (11|\ after the 1st play]
A|--------------------------------------------------|\ /
E|--------------------------------------------------|\


It's done! Probably not 100% perfect but it is damn nice when you play it with the
actual recording.. If you notice some mistakes, feel free to e-mail me.. I really
like this song so much as a like the anime itself =D
comments
print report bad tab
I want to post or [tab]
guest
You may want to rate the tab now too:
select rating
Please do not post tabs as comments. Select "correction" instead!