Oops, an error
Loading. Please wait.

Fall bass

118 views 1 this week
no commentswrite comment
1 2 3 4 5
3 more votes to show rating
add to favorites
×
Save as Personal and add changes to this tab that will be seen only by you. Learn more ›
×
You can save this tab as Personal to edit and correct it or add notes. All changes will be seen only by you. Learn more »
launch autoscroll
font size
0
reset
guitar tuner
edit
Autoscroll
slow
fast
+/-
esc
set tempo
stop
Author
Difficulty
Fall - Lisa Hannigan
As performed on the At Swim album.
Tabbed by: sushinut (ultimate-guitar.com)

4/4

[Verse 1]
                                    Hide your horses...                           ...steal the cars
G|-------------------------------------------------------------------------------------------------|
D|-------------------------------------------------------------------------------------------------|
A|-------------------------------------------------------------------------------------------------|
E|-------------------------------------------------------------------------------------------------|

      Run      fumes       north        us         fall 
G|-------------------------------------------------------------0-----------------------0-----------|
D|-------------------------------------------------1-----------------------1-----------------------|
A|-3-----------------------1-----------------------------------------------------------------------|
E|-------------------------------------------------------------------------------------------------|

[Verse 2]
      All      call        Brush       could                   past        spill
G|-------------------------------------------------------------0-----------------------------------|
D|-1-----------------------------------1-----------1-----------------------------------------------|
A|----------------------3\1/3-----------------------------------------------3------------------3/6-|
E|-------------------------------------------------------------------------------------------------|

      they     bridges     more        us          fall 
G|-----------------------------------------------------|
D|-------------1-----------------------1---------------|
A|-3-----------------------1-----------------------3---|
E|-----------------------------------------------------| 

[Chorus]
All our running  a -head,                      all our  running   a-head                       All our
G|-----------------------------------------------------------------------------------------------------|
D|------1--------3--------------------------------------1----------------------------------------------|
A|-------------(3)--1-----------------------3-----------------------1--------3--------1-----3----------|
E|------------------------------4-----------------------------------------------3----------------------|

   running   a-head                     
G|------------------------------------------------------------|
D|-1-----------------------------------1----------------------| 
A|-------------1----------------------------------------------|
E|-------------------------4----------------------------------|

[Verse 3]
      Time will seize                                                            ...we thought to do
G|-------------------------------------------------------------------------------------------------|
D|-------------------------------------------------------------------------------------------------|
A|-------------------------------------------------------------------------------------------------|
E|-------------------------------------------------------------------------------------------------|

         Oh    devil       me          will,       will  All   running     crawl       us
G|-------------------------------------------------------------------------------------------------|
D|-------0-----1-----------------------1-----------------0-----1-----------------------1-----------|
A|-3-----------------------1-----------------------3-----------------------1-----------------------|
E|-------------------------------------------------------------------------------------------------|

[Chorus / Outro]
  fall/All our running   a-head,                      all our  running   a-head            
G|-------------------------------------------------------------------------------------------------|
D|-------------1-----------------------------------------------1-----------------------------------|
A|-3-----------------------1-----------------------3-----------------------1-----------------------|
E|-------------------------------------4-----------------------------------------------4-----------|

       All our running   a-head,                                                all our running
G|-------------------------------------------------------------------------------------------------|
D|-------------1-----------------------------------1-----------1-----------1-----------------------|
A|-3-----------------------1-----------------------------------------------------1-----------------|
E|-------------------------------------4-----------------------------------------------3-----------|

        all our running         all our running       all our running
G|-------------------------------------------------------------------------0--------------------------|
D|-1-----------------------1-----------------------1--------------------------------------------------|
A|-------1-----------------------1---------------------3-1--------------------------------------------|
E|-------------3-----------------------3-----------------------3---------------------------------3----|

************************************

| \   Slide down
| /   Slide up
| ()  Grace note

************************************

            
            
Suggest correction
Creating personal tab
Creating personal tab
You can edit any tab online and save it as your Personal.

You can edit, replace or remove any tab part or add personal notes – all changes will be seen only by you.

Personal tabs can be accessed anytime from any device, even offline.
Learn more »
Give kudos to tab author, rate the tab!
1 2 3 4 5
comments
print report bad tab
guest
You may want to rate the tab now too:
select rating
Wanna post a correction for this tab? Suggest correction