Oops, an error
Loading. Please wait.

Lille Tab

47,036 views 45 this week
3 commentsread comments
1 2 3 4 5
x 15
add to favorites
launch autoscroll
font size
0
reset
how to read this tab
guitar tuner
×
Best way to learn
"Lille"
Autoscroll
slow
fast
+/-
esc
set tempo
stop
Author
Capo
artist: lisa hanniGan
song: lille
http://www.lisahanniGan.ie

Сapo 6th fret

  [Intro]
    С                       G       С                       G
e|-----------------------------------------------------------------| 
B|---1---1---1---1---1---1-------0---1---1---1---1---1---1---0---0-|
G|---------0-----------0-----0-------------0-----------0-----------|
D|-----2-----------2-------------------2-----------2---------------|
A|-3-----------3---------------2---3-----------3---------------2---|
E|-------------------------3-------------------------------3-------|
    
   С                       G       С                       G
e|-----------------------------------------------------------------|
B|---1---1---1---1---1---1---0---0---1---1---1---1---1---1---0---0-|
G|---------0-----------0-------------------0-----------0-----------|
D|-----2-----------2-------------------2-----------2---------------|
A|-3-----------3---------------2---3-----------3---------------2---|
E|-------------------------3-------------------------------3-------|

[Verse]
    С                       G       С                       G               
e|-----------------------------------------------------------------|
B|---1---1---1---1---1---1---0---0---1---1---1---1---1---1---0---0-|
G|.--------0-----------0-------------------0-----------0-----------|
D|.----2-----------2-------------------2-----------2---------------|
A|-3-----------3---------------2---3-----------3---------------2---|
E|-------------------------3-------------------------------3-------| 

   С                       G       С                       Am
e|-----------------------------------------------------------------|
B|---1---1---1---1---1---1---0---0---1---1---1---1---1---1---1---1-|
G|---------0-----------0-------------------0-----------0-----------|
D|-----2-----------2-------------------2-----------2-----------2---|
A|-3-----------3---------------2---3-----------3-----------0-------|
E|-------------------------3---------------------------------------|

   F                       Am      С                       Em
e|-----------------------------------------------------------------|
B|---1---1---1---1---1---1---1---1---1---1---1---1---1---1---0---0-|
G|---------2-----------2-------------------0-----------0-----------|
D|-----3-----------3-----------2-------2-----------2---------------|
A|-3-----------3-----------0-------3-----------3---------------2---|
E|---------------------------------------------------------0-------|

   Am                      F       С                       G
e|-----------------------------------------------------------------|
B|---1---1---1---1---1---1---1---1---1---1---1---1---1---1---0---0-|
G|---------2-----------2-------2-----------0-----------0-----------|
D|-----2-----------2-------3-----------2-----------2---------------|
A|-0-----------0-------------------3-----------3---------------2---|
E|---------------------------------------------------------3-------|

   С                       Em      Am                             
e|-----------------------------------------------------------------|
B|---1---1---1---1---1---1---0---0-------1---1---1---1---1---1---0-|
G|---------0-----------0-------------2-----2-----------2---2---0---|
D|-----2-----------2-------------------2-----------2---------------|
A|-3-----------3---------------2---0-----------0-------------------|
E|-------------------------0---------------------------------------|

   Fadd#11                         С                       G
e|-----------------------------------------------------------------|
B|-----------0---0---0---0---0---0---1---1---1---1---1---1---------|
G|---2---2-------------2-------------------0-----------0-----0---0-|
D|---------3-------3-----------3-------2-----------2---------------|
A|-----3-------3-----------3-------3-----------3---------------2---|
E|-1-------------------------------------------------------3-------|
   
   С                       G         
e|---------------------------------||
B|---1---1---1---1---1---1---------||
G|---------0-----------0-----0---0.||
D|-----2-----------2--------------.||
A|-3-----------3---------------2---||
E|-------------------------3-------||
   
  "ooh oooohh.." (1:25)
   F                               Am                      Em
e|-----------------------------------------------------------------|
B|---1---1---1---1---1---1---1---1---1---1---1---1---1---1---0---0-|
G|---------2-----------2-------------------2-----------2-----------|
D|-----3-----------3-----------3-------2-----------2---------------|
A|-3-----------3-----------3-------0-----------0---------------2---|
E|---------------------------------------------------------0-------|

   Am                              Fadd#11
e|-----------------------------------------------------------------|
B|---1---1---1---1---1---1---1---0-----------0---0---0---0---0---0-|
G|---------2-----------2-------------2---2-------------2-----------|
D|-----2-----------2-----------2-----------3-------3-----------3---|
A|-0-----------0-----------0-----------3-------3-----------3-------|
E|---------------------------------1-------------------------------|
Suggest correction
comments
print report bad tab
3 comments total.
0 reply
bassesrfun 10 Feb 27, 2009 09:40 AM

I think the capo should be on the 7th fret. That's what it sounds like on the recording.

0 reply
bassesrfun 10 Feb 27, 2009 01:22 PM

Sorry, I was wrong! My guitar was accidentally tuned down a half step. You are right.

0 reply
zwieback-dude 341 Feb 28, 2009 01:05 AM

=)

guest
You may want to rate the tab now too:
select rating
Wanna post a correction for this tab? Suggest correction