Oops, an error
Loading. Please wait.

Little Bird Tab

version 2
version 2

Whole song

3,654 views 33 this week
no commentswrite comment
1 2 3 4 5
please rate
add to favorites
launch autoscroll
font size
0
reset
how to read this tab
guitar tuner
Autoscroll
slow
fast
+/-
esc
set tempo
stop
Help us to improve Ultimate-Guitar.com Take our survey!
×
Contributor
Capo
9th fret
-------------------------------------------------------------------------------
                             Little Bird - Lisa Hannigan
-------------------------------------------------------------------------------
I did not break it up into time signature segments, instead I just sectioned it how it sounds.

Tuning: Standard
Capo 9

Intro
e|--------2------------|------------------------|-----------2--------------|
B|---3---------3-----3-|----3-----3-----3-----3-|-----3-----------3-----3--|
G|------2---------2----|-------------0----------|--------2-----------2-----|
D|-0--------0----------|-------2-----------2----|--0-----------0-----------|
A|---------------------|-1----------------------|--------------------------|
E|---------------------|------------------------|--------------------------|

e|-------------------------|----------2-----------2-|---------2-----------2|
B|----3-----3-----3-----3--|----3-----------3-------|---3-----------3------|
G|-------------0-----------|-------2-----------2----|------2-----------2---|
D|-------2-----------2-----|-0-----------0----------|0-----------0---------|
A|-1-----------------------|------------------------|----------------------|
E|-------------------------|------------------------|----------------------|

Verse
  "You're Heart..."                                "Like a Kettle..."
e|----------2-----------2-|----------2-----------2|-----------------------|
B|----3-----------3-------|----3-----------3------|----3-----3-----3------|
G|-------2-----------2----|-------2-----------2---|-------------2---------|
D|-0-----------0----------|-0-----------0---------|-------0---------------|
A|------------------------|-----------------------|-2---------------------|
E|------------------------|-----------------------|-----------------------|

e|-----------------------------|------------------|-----------------------|
B|----3-----3-----3----3-----3-|----3-----3-----3-|---3-----3-----3---3--3|
G|-------------2---------------|-------------0----|------------0----------|
D|-------0----------------0----|-------2----------|------2--------------2-|
A|-2-----------------2---------|-1----------------|1----------------1-----|
E|-----------------------------|------------------|-----------------------|

e|----------2-----------2-|----------2-----------2|----------2-----------2|
B|----3-----------3-------|----3-----------3------|----3-----------3------|
G|-------2-----------2----|-------2-----------2---|-------2-----------2---|
D|-0-----------0----------|-0-----------0---------|-0-----------0---------|
A|------------------------|-----------------------|-----------------------|
E|------------------------|-----------------------|-----------------------|

e|------------------|------------------------------|----------------------|
B|----3-----3-----3-|----3-----3-----3-----3-----3-|----3-----3-----3-----|
G|-------------2----|-------------2----------------|-------------0--------|
D|-------0----------|-------0-----------------0----|-------2--------------|
A|-2----------------|-2-----------------2----------|-1--------------------|
E|------------------|------------------------------|----------------------|

e|----------------------------|----------2-----------2-----------2--------|
B|----3-----3-----3----3-----3|----3-----------3-----------3--------------|
G|-------------0--------------|-------2-----------2-----------2-----------|
D|-------2----------------2---|-0-----------0-----------0-----------------|
A|-1-----------------1--------|-------------------------------------------|
E|----------------------------|-------------------------------------------|
  Keep repeating that pattern on the verse

Chorus
                                                    "When the....
e|----------2---------0h2--------2-------|--------------------------------|
B|----3-----------3--------3----------3--|----3-----3-----3-----3---------|
G|-------2------------------------------2|-------------2------------------|
D|-0-----------0--------------0-----0----|-------2-----------2------------|
A|---------------------------------------|-0------------------------------|
E|---------------------------------------|--------------------------------|
  "Time comes....
e|-----------------|------------------|----------------------2------------|
B|----3-----3-----3|-----3-----3-----3|----3-----3-----3-----------3----3-|
G|-------------0---|--------------0---|-------------------2-----------2---|
D|-------0---------|--------0---------|-------0-----0-----------0---------|
A|-----------------|--2---------------|-2---------------------------------|
E|-3---------------|------------------|-----------------------------------|


e|-------------------------|-----------------|----------------------------|
B|----3-----3-----3-----(3)|----3-----3-----3|----3-----3-----3-----3----3|
G|-------------2-----------|-------------0---|-------------0--------------|
D|-------2-----------2-----|-------0---------|-------0-----------------0--|
A|-0-----------------------|-----------------|-2-----------------2--------|
E|-------------------------|-3---------------|----------------------------|

e|----------2-----------|-------------------------|-----------------------|
B|----3----------3-----3|----3-----3-----3-----(3)|----3-----3-----3------|
G|-------2----------2---|-------------2-----------|-------------0---------|
D|-0----------0---------|-------2-----------2-----|-------0---------------|
A|----------------------|-0-----------------------|-----------------------|
E|----------------------|-------------------------|-3---------------------|

e|-----------------------------|----------2------------|------------------|
B|----3-----3-----3-----3-----3|----3-----------3-----3|----3-----3-----3-|
G|-------------0---------------|-------2-----------2---|-------------2----|
D|-------0-----------------0---|-0-----------0---------|-------2----------|
A|--2----------------2---------|-----------------------|-0----------------|
E|-----------------------------|-----------------------|------------------|

e|------------------------|----------------------------|------------------|
B|----3------3-----3-----3|----3-----3-----3-----3----3|----3-----3-----3-|
G|--------------------0---|-------------0--------------|-------------2----|
D|-2------------0---------|-------0-----------------0--|-------2----------|
A|------------------------|-2-----------------2--------|-0----------------|
E|--------3---------------|----------------------------|------------------|

Then the intro is played again
e|--------2------------|------------------------|-----------2--------------|
B|---3---------3-----3-|----3-----3-----3-----3-|-----3-----------3-----3--|
G|------2---------2----|-------------0----------|--------2-----------2-----|
D|-0--------0----------|-------2-----------2----|--0-----------0-----------|
A|---------------------|-1----------------------|--------------------------|
E|---------------------|------------------------|--------------------------|

e|-------------------------|----------2-----------2-|---------2-----------2|
B|----3-----3-----3-----3--|----3-----------3-------|---3-----------3------|
G|-------------0-----------|-------2-----------2----|------2-----------2---|
D|-------2-----------2-----|-0-----------0----------|0-----------0---------|
A|-1-----------------------|------------------------|----------------------|
E|-------------------------|------------------------|----------------------|

Verse

e|----------2-----------2-|----------2-----------2|-----------------------|
B|----3-----------3-------|----3-----------3------|----3-----3-----3------|
G|-------2-----------2----|-------2-----------2---|-------------2---------|
D|-0-----------0----------|-0-----------0---------|-------0---------------|
A|------------------------|-----------------------|-2---------------------|
E|------------------------|-----------------------|-----------------------|

e|-----------------------------|------------------|-----------------------|
B|----3-----3-----3----3-----3-|----3-----3-----3-|---3-----3-----3---3--3|
G|-------------2---------------|-------------0----|------------0----------|
D|-------0----------------0----|-------2----------|------2--------------2-|
A|-2-----------------2---------|-1----------------|1----------------1-----|
E|-----------------------------|------------------|-----------------------|

e|----------2-----------2-|----------2-----------2|----------2-----------2|
B|----3-----------3-------|----3-----------3------|----3-----------3------|
G|-------2-----------2----|-------2-----------2---|-------2-----------2---|
D|-0-----------0----------|-0-----------0---------|-0-----------0---------|
A|------------------------|-----------------------|-----------------------|
E|------------------------|-----------------------|-----------------------|

e|------------------|------------------------------|----------------------|
B|----3-----3-----3-|----3-----3-----3-----3-----3-|----3-----3-----3-----|
G|-------------2----|-------------2----------------|-------------0--------|
D|-------0----------|-------0-----------------0----|-------2--------------|
A|-2----------------|-2-----------------2----------|-1--------------------|
E|------------------|------------------------------|----------------------|

e|----------------------------|----------2-----------2-----------2--------|
B|----3-----3-----3----3-----3|----3-----------3-----------3--------------|
G|-------------0--------------|-------2-----------2-----------2-----------|
D|-------2----------------2---|-0-----------0-----------0-----------------|
A|-1-----------------1--------|-------------------------------------------|
E|----------------------------|-------------------------------------------|
Just keep repeating that pattern on the Verse

Chorus
e|----------2---------0h2--------2-------|--------------------------------|
B|----3-----------3--------3----------3--|----3-----3-----3-----3---------|
G|-------2------------------------------2|-------------2------------------|
D|-0-----------0--------------0-----0----|-------2-----------2------------|
A|---------------------------------------|-0------------------------------|
E|---------------------------------------|--------------------------------|

e|-----------------|------------------|----------------------2------------|
B|----3-----3-----3|-----3-----3-----3|----3-----3-----3-----------3----3-|
G|-------------0---|--------------0---|-------------------2-----------2---|
D|-------0---------|--------0---------|-------0-----0-----------0---------|
A|-----------------|--2---------------|-2---------------------------------|
E|-3---------------|------------------|-----------------------------------|


e|-------------------------|-----------------|----------------------------|
B|----3-----3-----3-----(3)|----3-----3-----3|----3-----3-----3-----3----3|
G|-------------2-----------|-------------0---|-------------0--------------|
D|-------2-----------2-----|-------0---------|-------0-----------------0--|
A|-0-----------------------|-----------------|-2-----------------2--------|
E|-------------------------|-3---------------|----------------------------|

e|----------2-----------|-------------------------|-----------------------|
B|----3----------3-----3|----3-----3-----3-----(3)|----3-----3-----3------|
G|-------2----------2---|-------------2-----------|-------------0---------|
D|-0----------0---------|-------2-----------2-----|-------0---------------|
A|----------------------|-0-----------------------|-----------------------|
E|----------------------|-------------------------|-3---------------------|

e|-----------------------------|----------2------------|------------------|
B|----3-----3-----3-----3-----3|----3-----------3-----3|----3-----3-----3-|
G|-------------0---------------|-------2-----------2---|-------------2----|
D|-------0-----------------0---|-0-----------0---------|-------2----------|
A|--2----------------2---------|-----------------------|-0----------------|
E|-----------------------------|-----------------------|------------------|

e|------------------------|----------------------------|------------------|
B|----3------3-----3-----3|----3-----3-----3-----3----3|----3-----3-----3-|
G|--------------------0---|-------------0--------------|-------------2----|
D|-2------------0---------|-------0-----------------0--|-------2----------|
A|------------------------|-2-----------------2--------|-0----------------|
E|--------3---------------|----------------------------|------------------|

The ending/outro is simply the chorus repeated except with the A7 used.

I hope its not too confusing but the chord progressions are pretty easy to figure out as 
is the picking pattern. Thing song mostly repeats itself.

This is pretty spot on. This took a while so if I made any mistakes just let me know. I 
got most of it from watching her on youtube http://www.youtube.com/watch?v=jeHUJc_xHQs

Thanks and God bless!
Suggest correction new What's this?
You can suggest a correction to this tab. Community and Mods will review your correction and vote to approve or reject it.
comments
We did not receive enough feedback on this tab! Please rate:
print report bad tab
1 2 3 4 5
guest
You may want to rate the tab now too:
select rating
Please do not post tabs as comments. Select "correction" instead!