Oops, an error
Loading. Please wait.

Ocean And A Rock bass

25 views 3 this week
1 commentread comment
1 2 3 4 5
3 more votes to show rating
add to favorites
×
Save as Personal and add changes to this tab that will be seen only by you. Learn more ›
×
You can save this tab as Personal to edit and correct it or add notes. All changes will be seen only by you. Learn more »
launch autoscroll
font size
0
reset
guitar tuner
edit
Autoscroll
slow
fast
+/-
esc
set tempo
stop
About this tab version
Song switches between 5/4 and 4/4 time. Lyric and beat cues are placed above and below each tab line respectively. Was this info helpful? Yes No
Artist: Lisa Hannigan
Song: Ocean and a Rock
As performed on the Sea Sew album.
Tabbed by: sushinut (ultimate-guitar.com)

NOTE: changes between 5/4 and 4/4 time

[Intro]
G|---------------------------------------------------------------------------0-2-4-|
D|-------------------------------------------------------------------------2-------|
A|-3-----3-----5---0---3-----3-----5---0---3-----3-----5---0---3-----3---3---------|
E|---------------------------------------------------------------------------------|
   1   2   3   4   5   1   2   3   4   5   1   2   3   4   5   1   2   3   4   5 

G|-5-----5-----2---0---------------------------------------------------------0-2-4-| 
D|---------------------2-----2-----0---3---2-----2-------------------------2-------|
A|-------------------------------3-------------------2-5---0---3-----3---3---------|
E|---------------------------------------------------------------------------------|
   1   2   3   4   5   1   2   3   4   5   1   2   3   4   5   1   2   3   4   5 

[Verse 1]
   Want                friend              in                  rock away.
G|-5-----5-----2---0---------------------------------------------------------------|
D|---------------------2-----2-----0---3---2-----2---------------------------------|
A|-------------------------------3-------------------2-5---0---3-----3-----5---0---|
E|---------------------------------------------------------------------------------|
   1   2   3   4   5   1   2   3   4   5   1   2   3   4   5   1   2   3   4   5 

G|-5-----5-----2---0---------------------------------------------------------0-2-4-|
D|---------------------2-----2-----0---3---2-----2-------------------------2-------|
A|-------------------------------3-------------------2-5---0---3-----3---3---------|
E|---------------------------------------------------------------------------------|
   1   2   3   4   5   1   2   3   4   5   1   2   3   4   5   1   2   3   4   5 

 I feel                overcoat          a-round               games we play.
G|-5-----5-----2---0---------------------------------------------------------0-2-4-|
D|---------------------2-----2-----0---3---2-----2-------------------------2-------|
A|-------------------------------3-------------------2-5---0---3-----3---3---------|
E|---------------------------------------------------------------------------------|
   1   2   3   4   5   1   2   3   4   5   1   2   3   4   5   1   2   3   4   5 

G|-5-----5-----2---0---------------------------------------------------------------|
D|---------------------2-----2-----0---3---2-----2---------------------------------|
A|-------------------------------3-------------------2-5---0---3-----3-----5---0---|
E|---------------------------------------------------------------------------------|
   1   2   3   4   5   1   2   3   4   5   1   2   3   4   5   1   2   3   4   5 

 I feed                buttonholes         fingerless          and prone to fraying.
G|-5-----5-----2---0---------------------------------------------------------------|
D|---------------------2-----2-----0---3---2-----2---------------------------------|
A|-------------------------------3-------------------2-5---0---3-----3-----5---0---|
E|---------------------------------------------------------------------------------|
   1   2   3   4   5   1   2   3   4   5   1   2   3   4   5   1   2   3   4   5 

SWITCH TO 4/4 time

[Chorus]
G|-----------------------------------------------------------------|
D|---------------------------------------------5-4-3---------------|
A|-3-----------/---7-----------------------------------------------|
E|-----------------------------7-\-5-------------------------------|
   1   2   3   4   1   2   3   4   1   2   3   4   1   2   3   4  

G|-----------------------------------------------------------------|
D|---------------------------------------------5-4-3---------------|
A|-3-----------3-5-7-----------------------------------------------|
E|-----------------------------7-\-5-------------------------------|
   1   2   3   4   1   2   3   4   1   2   3   4   1   2   3   4  

        Thoughts         on            I'm on           I'm on
G|-----------------------------------------------------------------|
D|---------------------------------------------5-\-3---------------|
A|-3-----------3-/-7-----------------------------------------------|
E|-----------------------------7-\-5-------------------------------|
   1   2   3   4   1   2   3   4   1   2   3   4   1   2   3   4  

        Let's     lost        and you              rock        to...
G|-----------------------------------------------------------------|
D|-------------------------------------------------3---------------|
A|-3------------3-/-7----------------------------------------------|
E|-----------------------------7-\-5-------------------------------|
   1   2   3   4   1   2   3   4   1   2   3   4   1   2   3   4  

BACK TO 5/4

[Bridge]
...me.
G|-5-----5-----2---0---------------------------------------------------------0-2-4-|
D|---------------------2-----2-----0---3---2-----2-------------------------2-------|
A|-------------------------------3-------------------2-5---0---3-----3---3---------|
E|---------------------------------------------------------------------------------|
   1   2   3   4   5   1   2   3   4   5   1   2   3   4   5   1   2   3   4   5 

[Verse 2]
   I am far            lay                 fall                rock away.
G|-5-----5-----2---0---------------------------------------------------------0-2-4-|
D|---------------------2-----2-----0---3---2-----2-------------------------2-------|
A|-------------------------------3-------------------2-5---0---3-----3---3---------|
E|---------------------------------------------------------------------------------|
   1   2   3   4   5   1   2   3   4   5   1   2   3   4   5   1   2   3   4   5 

G|-5-----5-----2---0---------------------------------------------------------0-2-4-|
D|---------------------2-----2-----0---3---2-----2-------------------------2-------|
A|-------------------------------3-------------------2-5---0---3-----3---3---------|
E|---------------------------------------------------------------------------------|
   1   2   3   4   5   1   2   3   4   5   1   2   3   4   5   1   2   3   4   5 

 I keep                dresses             brushes             curls today.
G|-5-----5-----2---0---------------------------------------------------------0-2-4-|
D|---------------------2-----2-----0---3---2-----2-------------------------2-------|
A|-------------------------------3-------------------2-5---0---3-----3---3---------|
E|---------------------------------------------------------------------------------|
   1   2   3   4   5   1   2   3   4   5   1   2   3   4   5   1   2   3   4   5 

G|-5-----5-----2---0---------------------------------------------------------0-2-4-|
D|---------------------2-----2-----0---3---2-----2-------------------------2-------|
A|-------------------------------3-------------------2-5---0---3-----3---3---------|
E|---------------------------------------------------------------------------------|
   1   2   3   4   5   1   2   3   4   5   1   2   3   4   5   1   2   3   4   5 

 I spoon               coffee              delicate            day            all...
G|-5-----5-----2---0---------------------------------------------------------------|
D|---------------------2-----2-----0---3---2-----2---------------------------------|
A|-------------------------------3-------------------2-5---0---3-----3-----5---0---|
E|---------------------------------------------------------------------------------|
   1   2   3   4   5   1   2   3   4   5   1   2   3   4   5   1   2   3   4   5 

BACK TO 4/4 time

[Chorus]
...day.
G|-----------------------------------------------------------------|
D|---------------------------------------------5-4-3---------------|
A|-3-----------3-5-7-----------------------------------------------|
E|-----------------------------7-\-5-------------------------------|
   1   2   3   4   1   2   3   4   1   2   3   4   1   2   3   4  

G|-----------------------------------------------------------------|
D|---------------------------------------------5-4-3---------------|
A|-3-----------3-/-7-----------------------------------------------| 
E|-----------------------------7-\-5-------------------------------|
   1   2   3   4   1   2   3   4   1   2   3   4   1   2   3   4  

        Thoughts         on            I'm on           I'm on
G|-----------------------------------------------------------------| 
D|---------------------------------------------5-\-3---------------|
A|-3-----------3-/-7-----------------------------------------------|
E|-----------------------------7-\-5-------------------------------|
   1   2   3   4   1   2   3   4   1   2   3   4   1   2   3   4  
         
        Let's     lost        and you              rock        to...
G|-----------------------------------------------------------------|
D|---------------------------------------------5-\-3---------------|
A|-3-----------3-/-7-----------------------------------------------|
E|-----------------------------7-\-5-------------------------------|
   1   2   3   4   1   2   3   4   1   2   3   4   1   2   3   4  

  me.   Thoughts          warm my bones          way       nearly... 
G|-----------------------------------------------------------------|
D|---------------------------------------------5-\-3---------------|
A|-3-----------3-/-7-----------------------------------------------|
E|-----------------------------7-\-5-------------------------------|
   1   2   3   4   1   2   3   4   1   2   3   4   1   2   3   4  

   home        get lost    me and you        and a rock        to...
G|-----------------------------------------------------------------|
D|---------------------------------------------5-4-3---------------|
A|-3-----------3-/-7-----------------------------------------------|
E|-----------------------------7-\-5-------------------------------|
   1   2   3   4   1   2   3   4   1   2   3   4   1   2   3   4  

[Outro]
  me.
G|-----------------------------------------------------------------|
D|---------------------------------------------5-4-3---------------|
A|-3-----------3-/-7-----------------------------------------------|
E|-----------------------------7-\-5-------------------------------|
   1   2   3   4   1   2   3   4   1   2   3   4   1   2   3   4  

G|-----------------------------------------------------------------|
D|---------------------------------------------5-4-3---------------|
A|-3-----------3-/-7-----------------------------------------------|
E|-----------------------------7-\-5-------------------------------|
   1   2   3   4   1   2   3   4   1   2   3   4   1   2   3   4  

G|-----------------------------------------------------------------|
D|---------------------------------------------5-4-3---------------|
A|-3-----------3-/-7-----------------------------------------------|
E|-----------------------------7-\-5-------------------------------|
   1   2   3   4   1   2   3   4   1   2   3   4   1   2   3   4  

G|-----------------------------------------------------------------|
D|-------------------------------------------------3---------------|
A|-3-----------3-/-7-----------------------------------------------|
E|-----------------------------7-\-5-------------------------------|
   1   2   3   4   1   2   3   4   1   2   3   4   1   2   3   4  


************************************

| /   Slide up
| \   Slide down

************************************

            
            
Suggest correction
Creating personal tab
Creating personal tab
You can edit any tab online and save it as your Personal.

You can edit, replace or remove any tab part or add personal notes – all changes will be seen only by you.

Personal tabs can be accessed anytime from any device, even offline.
Learn more »
Give kudos to tab author, rate the tab!
1 2 3 4 5
comments
print report bad tab
1 comment total.
0 reply
sushinut 221 Jun 27, 2017 11:23 PM

This is my 9th Lisa Hannigan bass tab! Receiving some views, but so far no feedback. If you have any requests for a Lisa Hannigan bass tab, let me know!

guest
You may want to rate the tab now too:
select rating
Wanna post a correction for this tab? Suggest correction