Oops, an error
Loading. Please wait.

Ocean And A Rock Tab

967 views 12 this week
no commentswrite comment
1 2 3 4 5
please rate
add to favorites
launch autoscroll
font size
0
reset
how to read this tab
guitar tuner
Autoscroll
slow
fast
+/-
esc
set tempo
stop
Help us to improve Ultimate-Guitar.com Take our survey!
×
Author
Difficulty
intermediate
Lisa Hannigan - Ocean and Rock
EADGBe

Verse, Instr. Melody
   C           F       C           F6      C           F6      C
e|-------------------------------------------------------------------------|
B|-------1-----------------------1-3---------1-------1-3-------------1-----|
G|-----0-----0---2--(0)----0---0-------2---0---0---0-------2---0---0-----0-|
D|---2-----2---3---------2---2-----3(3)--x-------2-----3(3)--x---2---------|
A|-3---------------0---3-------------------3-------------------3-----------|
E|-------------------------------------------------------------------------|

Chorus:
   C               E7              Am              F
e|-----------------------------------------------------------------|
B|-------1---------------3---------------1---------------1---------|
G|-----0---0---0-------1---1---1-------2---2---2-------2---2---2---|
D|---2-------2---2---2-------2---2---2-------2---2---3-------3---3-|
A|-3-------------------------------0-------------------------------|
E|-----------------0-------------------------------1---------------|

What you at my gentle-spoken
Friend. I lack a frame to put you 
In when you're an ocean and a
Rock away.

I feel you in the pockets of my
Overcoat, my fingers wrapped a-
round your words and take the shape of
Games we play

I feed your words through my 
Buttonholes, pin them to my 
Fingerless gloves, they're green and 
Prone to fray -  
- ing.

   Thoughts of you warm my bones 
   I'm on the way, I'm on the phone 
   Lets get lost, me and you
   An ocean and a rock is nothing to 
   me.

I am far away from where you
Lay awake the day while you
Fall to sleep an ocean and a 
Rock away

I keep you in the pockets of my 
Dresses and the bristles of my 
Brushes spin you into my 
Curls today

I spoon you into my 
Coffee cup, spin you through a 
Delicate wash. I wear you all 
Day,  I wear you all
Day

   Thoughts of you warm my bones 
   I'm on the way, I'm on the phone 
   Lets get lost, me and you
   An ocean and a rock is nothing to 
   me.

   Thoughts of you, you warm my bones 
   I'm on the way, I'm nearly home
   Lets get lost, me and you
   An ocean and a rock is nothing to 
   me.
Suggest correction
Give kudos to tab author, rate the tab!
1 2 3 4 5
comments
print report bad tab
guest
You may want to rate the tab now too:
select rating
Please do not post tabs as comments. Select "correction" instead!