Oops, an error
Loading. Please wait.

Passenger bass

70 views 1 this week
no commentswrite comment
1 2 3 4 5
3 more votes to show rating
add to favorites
×
Save as Personal and add changes to this tab that will be seen only by you. Learn more ›
×
You can save this tab as Personal to edit and correct it or add notes. All changes will be seen only by you. Learn more »
launch autoscroll
font size
0
reset
guitar tuner
edit
Autoscroll
slow
fast
+/-
esc
set tempo
stop
Author
Difficulty
About this tab version
The basic rhythm consists of whole notes occasionally modified by eighth-note embelishments. Note that the chorus has a bass drum on each beat that mixes with the double bass. I did a spectrum analysis, and it appears the upright bass is keeping with the basic whole-note rhythm, while the drum fills every other beat. Was this info helpful? Yes No
Passenger - Lisa Hannigan
As performed on the Passenger album.
Tabbed by: sushinut (ultimate-guitar.com)

4/4 time

(Ukulele intro)

[Verse 1]
   Walking 'round Chicago...              ...own remembering
G|----------------------------------------------------------|
D|--[rest]--------------------------------------------------|
A|----------------------------------------------------------|
E|----------------------------------------------------------|

[Bridge]
   She said Bird...       Why?
G|----------------------------------------------------------|
D|--[rest]--------------------------------------------------|
A|----------------------------------------------------------|
E|----------------------------------------------------------|

[Verse 2]
(snare/banjo)
   We wound our...                 ...across dust and oceans
G|----------------------------------------------------------|
D|--[rest]--------------------------------------------------|
A|----------------------------------------------------------|
E|----------------------------------------------------------|

 In Phoenix                         ...died a notion
G|---------5------4------2-------------5------4------2------|
D|--5---------------------------5---------------------------|
A|----------------------------------------------------------|
E|----------------------------------------------------------|

[Bridge]
 ...Bird                    Oh  Why?
G|---------5------4------2-------------5------4----4-2------|
D|--5---------------------------5---------------------------|
A|----------------------------------------------------------|
E|----------------------------------------------------------|

 ...Bird                    Oh  Why?
G|---------5------4------2-------------5------4------5------|
D|--5---------------------------5---------------------------|
A|----------------------------------------------------------|
E|----------------------------------------------------------|

[Chorus]
    Oh my satellite                    passenger
G|----------------------------------------------------------|
D|-----------------------5----------------------------------|
A|--5------5------3-------------5------5------3-------------|
E|----------------------------------------------------------|

G|---------5----5-4----4-2-------------5----5-4----4-2------|
D|--5-------------------------3/5----5----------------------|
A|----------------------------------------------------------|
E|----------------------------------------------------------|

[Verse 3]
 We came   Ohio                        closer
G|---------5----5-4------2-------------5----5-4----4-2------|
D|--5-------------------------3/5---------------------------|
A|----------------------------------------------------------|
E|----------------------------------------------------------|

 We came                        buried you...
G|---------5------4----4-2----------------------------------|
D|--5---------------------------5---------------------------|
A|----------------------------------------------------------|
E|----------------------------------------------------------|

[Bridge]
 ...Bird                    Oh  Why?
G|---------5----5-4----4-2-------------5----5-4------2------|
D|--5---------------------------5---------------------------|
A|----------------------------------------------------------|
E|----------------------------------------------------------|

 ...Bird                    Oh  Why?
G|---------5------4------2-------------5------4------2------|
D|--5---------------------------5---------------------------|
A|----------------------------------------------------------|
E|----------------------------------------------------------|

[Chorus]
    Oh my satellite                    passenger
G|----------------------------------------------------------|
D|-----------------------5---------------------------5------|
A|--5------5----5-3----3------3-5------5------3-------------|
E|----------------------------------------------------------|

    Oh my satellite                    passenger
G|----------------------------------------------------------|
D|-----------------------5----------------------------------|
A|--5------5------3-------------5------5------3-------------|
E|----------------------------------------------------------|

[Outro]
G|---------5----5-4----4-2----5--------5----5-4----4-2------|
D|--5---------------------------5----5----------------------|
A|----------------------------------------------------------|
E|----------------------------------------------------------|

G|---------5----5-4----4-2-------------5------4------2-----------|
D|--5----5----------------------5----5-----------------------5---|
A|---------------------------------------------------------------|
E|---------------------------------------------------------------|

************************************

| /  Slide up

************************************
Suggest correction
Creating personal tab
Creating personal tab
You can edit any tab online and save it as your Personal.

You can edit, replace or remove any tab part or add personal notes – all changes will be seen only by you.

Personal tabs can be accessed anytime from any device, even offline.
Learn more »
Give kudos to tab author, rate the tab!
1 2 3 4 5
comments
print report bad tab
guest
You may want to rate the tab now too:
select rating
Wanna post a correction for this tab? Suggest correction