Oops, an error
Loading. Please wait.

Driving One Of Your Cars Tab

version 1
version 1

Whole song

10,351 views 15 this week
1 commentread comment
1 2 3 4 5
accurate
x 6
add to favorites
launch autoscroll
font size
0
reset
how to read this tab
guitar tuner
Autoscroll
slow
fast
+/-
esc
set tempo
stop
Help us to improve Ultimate-Guitar.com Take our survey!
×
Lisa Miskovsky - Driving one of your cars.
 Tabbed by Daniel Johnsson, opt00dj1@student.ki.se.
  
Intro:

    Em                         
E[--3-3-3-2-2-2-2-2-3-3-3-2-2-2-2-2---]
B[--0-0-0-0-0-0-0-0-0-0-0-0-0-0-0-0---]
G[---------------------------------------]
D[--------------------------------------]
A[----------------------------------]
E[--------------------------------------------]

     G                         D
E[--3-3-3-2-2-2-2-2-3-3-3-2-2-2-2-2---]
B[--3-3-3-3-3-3-3-3-3-3-3-3-3-3-3-3---]
G[--------------------------------------------]
D[--------------------------------------------]
A[--------------------------------------------]
E[--------------------------------------------]

Verse1
           C     G           D
Saw you go high above autumn clouds 
           C                         G            Blinded my eyes when the sparks grew bigger than your 
D
lies 
                     C        G             D
You´re concealed but still so wonderful, so magical
           C                   G           D
Blinded my forehead, say can I see if it´s me

   Em       G            C                G
So cold, So cold…Meet me there, alone and spared
                         D
Cause I´m driving one of your cars

Chorus same as intro: Play 3 times:
Uuuuhh…..    …Cause I´m driving one of your cars

Verse2
Kelowna is beautiful in summertime they say 
but, even if I am sorrounded I wish you´ll stay 
but, it´s never been your style, fun for a while, then you´re on your own 
still I found the greatest force that´s been ever known 

So cold...

Repeat Chorus
 
:: Ultimate Guitar Archive :: 
http://www.ultimate-guitar.com 



comments
print report bad tab
1 comment total.
0 reply
Gaffamau 13 wrote on November 19 2009, 03:37 pm

Sorry dude, I belive the intro is wrong. here is how i would i like it:
besides this: good tabs, sure a beginner song worth to learn.


e|3-3-3-2-2-2-2-2-|3-3-3-2-2-2-2-2-|3-3-3-2-2-2-2-2-|3-3-3-2-2-2-2-2-|
B|0-0-0-0-0-0-0-0-|1-1-1-1-1-1-1-1-|3-3-3-3-3-3-3-3-|3-3-3-3-3-3-3-3-|
G|----------------|----------------|----------------|----------------|
D|----------------|----------------|----------------|----------------|
A|----------------|----------------|----------------|----------------|
E|----------------|----------------|----------------|--------------

I want to post or [tab]
guest
You may want to rate the tab now too:
select rating
Please do not post tabs as comments. Select "correction" instead!