Oops, an error
Loading. Please wait.

Driving One Of Your Cars Tab

version 2
version 2

Intro

Whole song

2,109 views 3 this week
no commentswrite comment
1 2 3 4 5
excellent!
x 1
add to favorites
launch autoscroll
font size
0
reset
how to read this tab
guitar tuner
Tab Pro tools
  • play this tab
  • loop segment
  • change instrument
  • show fretboard
  • metronome
Autoscroll
slow
fast
+/-
esc
set tempo
stop
Contributor
----------------------------------------------------------------------------              
          SONG NAME -Driving One Of Your Cars  Band Name -Lisa Miskovsky
----------------------------------------------------------------------------
             

Tabbed by: Crille
Email:

Tuning: Standard 
                   
             LISTEN TO THE SONG AND IT WILL GET MUCH EASIER




                          GUITAR 1 Inrto
e|3-3-3-2-2-2-2-2-|3-3-3-2-2-2-2-2-|3-3-3-2-2-2-2-2-|3-3-3-2-2-2-2-2-|   
B|0-0-0-0-0-0-0-0-|1-1-1-1-1-1-1-1-|3-3-3-3-3-3-3-3-|3-3-3-3-3-3-3-3-| X3
G|----------------|----------------|----------------|----------------|
D|----------------|----------------|----------------|----------------|
A|----------------|----------------|----------------|----------------|
E|----------------|----------------|----------------|----------------|
e|-------------------------------------------------------------------|

                             GUITAR 2 
   When guitar 1 have reapeted the intro one time you play this: 

                                                   e|----------------|
                                                   B|----------------|
                                                   G|----------------|
                        Bend only one time         D|----------------|
                                                   A|--5b------------|
                                                   E|----------------|

e|----------------|----------------|----------------|----------------|
B|----------------|----------------|----------------|----------------|
G|----------------|----------------|----------------|----------------| X2
D|9-9-9-9-9-9-9-9-|5-5-5-5-5-5-5-5-|----------------|7-7-7-7-7-7-7-7-|
A|7-7-7-7-7-7-7-7-|3-3-3-3-3-3-3-3-|5-5-5-5-5-5-5-5-|5-5-5-5-5-5-5-5-|
E|----------------|----------------|3-3-3-3-3-3-3-3-|----------------|
 
                        GUITAR 2
     And now it come a bass in to the song then you can play this
                           
e|----------------|----------------|----------------|----------------|
B|----------------|----------------|----------------|----------------|
G|----------------|----------------|----------------|----------------|
D|5-5-5-5-5-5-5-5-|9-9-9-9-9-9-9-9-|7-7-7-7-7-7-7-7-|7-7-7-7-7-7-7-7-| X4
A|3-3-3-3-3-3-3-3-|7-7-7-7-7-7-7-7-|5-5-5-5-5-5-5-5-|5-5-5-5-5-5-5-5-|
E|----------------|----------------|----------------|----------------|

                          GUITAR 1
 
          When the ryhthm above have been reapeted 2 times this come
e|----------------|----------------|----------------|----------------|
B|----------------|----------------|----------------|----------------|
G|----------------|----------------|----------------|----------------|
D|7-7-7-5-5-5-5-5-|7-7-7-5-5-5-5-5-|5-5-5-4-4-4-4-4-|5-5-5-4-4-4-4-4-| X4
A|----------------|----------------|----------------|----------------|
E|----------------|----------------|----------------|----------------|
                         
                                GUITAR 2

e|3-----3-----3---|3-----3-----3---|2----2-----2----|2----2-----2----|
B|--3-----3-----3-|--3-----3-----3-|--3----3-----3--|--3----3-----3--|
G|----0-----0-----|----0-----0-----|----2----2------|----2----2------| X2
D|----------------|----------------|----------------|----------------|
A|----------------|----------------|----------------|----------------|
E|----------------|----------------|----------------|----------------|

                          GUITAR 2                 e|----------------|
                                                   B|----------------|
                                                   G|----------------|
                        Bend only one time         D|----------------|
                                                   A|--5b------------|
                                                   E|----------------|

e|----------------|----------------|----------------|----------------|
B|----------------|----------------|----------------|----------------|
G|----------------|----------------|----------------|----------------| X3
D|9-9-9-9-9-9-9-9-|5-5-5-5-5-5-5-5-|----------------|7-7-7-7-7-7-7-7-|
A|7-7-7-7-7-7-7-7-|3-3-3-3-3-3-3-3-|5-5-5-5-5-5-5-5-|5-5-5-5-5-5-5-5-|
E|----------------|----------------|3-3-3-3-3-3-3-3-|----------------|

                          GUITAR 1 

e|3-3-3-2-2-2-2-2-|3-3-3-2-2-2-2-2-|3-3-3-2-2-2-2-2-|3-3-3-2-2-2-2-2-|
B|0-0-0-0-0-0-0-0-|1-1-1-1-1-1-1-1-|3-3-3-3-3-3-3-3-|3-3-3-3-3-3-3-3-| X3
G|----------------|----------------|----------------|----------------|
D|----------------|----------------|----------------|----------------|
A|----------------|----------------|----------------|----------------|
E|----------------|----------------|----------------|----------------|
e|-------------------------------------------------------------------|




Thats all you need to know to play this song a tip is that you      
play it with a friend so one can play GUITAR 1 and the other GUITAR 2 sounds really cool






| b  bend
| /  slide up
| \  slide down
| h  hammer-on
| p  pull-off
| ~  vibrato
| +  harmonic
| x  Mute note
===============================================================================
comments
We did not receive enough feedback on this tab! Please rate:
print report bad tab
1 2 3 4 5
I want to post or [tab]
guest
You may want to rate the tab now too:
select rating
Please do not post tabs as comments. Select "correction" instead!