Oops, an error
Loading. Please wait.

Still Alive Tab

version 1
version 1

Intro

Whole song

Interactive

10,681 views 6 this week
2 commentsread comments
1 2 3 4 5
x 8
add to favorites
launch autoscroll
font size
0
reset
how to read this tab
guitar tuner
Autoscroll
slow
fast
+/-
esc
set tempo
stop
Help us to improve Ultimate-Guitar.com Take our survey!
×
Author
-------------------------------------------------------------------------------
                             Still Alive - Lisa Miskovsky
-------------------------------------------------------------------------------
Tabbed by: BaZaH

Tuning: Standard

e|--------11---11-11--9--6---6----4----9---9-9---2-1---1---------------------|
B|-------------------------------------------------------4-------------------|
G|---------------------------------------------------------------------------|
D|---------------------------------------------------------------------------|
A|---------------------------------------------------------------------------|
E|---------------------------------------------------------------------------|

===============================================================================
Suggest correction
comments
print report bad tab
2 comments total.
0 reply
guitarlover865 128 Jan 30, 2009 10:08 AM

This TAB is perfect, though I gave it four stars.
You should use more strings to play the songs, because now you have to move your hand too quickly...

0 reply
EarthenSonata 20 Mar 29, 2009 09:09 PM

e-----11--11-11--9----------------9--9-9-------------
B-------------------11--11-11--9---------------------
G-----------------------------------------11-10--10-8

Is that better?

guest
You may want to rate the tab now too:
select rating
Wanna post a correction for this tab? Suggest correction