Oops, an error
Loading. Please wait.

Erik chords

76 views 3 this week
no commentswrite comment
1 2 3 4 5
x 10
add to favorites
×
Save as Personal and add changes to this tab that will be seen only by you. Learn more ›
×
You can save this tab as Personal to edit and correct it or add notes. All changes will be seen only by you. Learn more »
launch autoscroll
font size
0
reset
transpose
0
reset
display chords
guitar tuner
edit
Autoscroll
slow
fast
+/-
esc
set tempo
stop
Author
Strumming
There is no strumming pattern for this song yet. and get +5 IQ
SONG:   ERIK
ARTIST: LISA MITCHELL
TAB BY: DON CZARSKI
EMAIL:  GUITARZAN7@HOTMAIL.COM

                             ERIK
                         LISA MITCHELL

NOTE: This is basically a PIANO song arranged for GUITAR.
      It was a request for the song to be done for GUITAR
      in standard tuning.


INTRO:

   Bb F    
E --------------------
B -3--1---------------
G ------3-2-3-2-0-----
D -----------------3--
A --------------------
E --------------------

Bb F F
F F  Bb Bb
F F

   F         Bb          
E -------------------
B -3-1---------------
G -----3-2-0---------
D -----------3-------
A -------------------
E -------------------

   Bb        C          
E -------------------
B -------------------
G -3-3-2-0-----------
D ---------3-2-------
A -------------------
E -------------------


VERSE:
     C
Well I got home and my head 
        Bb      F        C
It was full of cars and buses

  F       Bb
Flashing lights

 F               Bb
Racing si-i-i-i-rens

Bb        C
Si-i-i-i-rens

   F         Bb          
E -------------------
B -3-1---------------
G -----3-2-0---------
D -----------3-------
A -------------------
E -------------------

   F         Bb          
E -------------------
B -3-1---------------
G -----3-2-0---------
D -----------3-------
A -------------------
E -------------------


VERSE:
     Bb                          Gm   F  F F  F F
Well over the fence there came a melody
F F  Bb Bb  Bb Bb  F F  
Erik Satie, 

F F       F          Bb
Erik Sat-ie-ie-ie-ie-ie 
     Bb  Bb  C
The wind and me

   F         Bb          
E -------------------
B -3-1---------------
G -----3-2-0---------
D -----------3-------
A -------------------
E -------------------

   F         Bb          
E -------------------
B -3-1---------------
G -----3-2-0---------
D -----------3-------
A -------------------
E -------------------


VERSE:
 Bb  Dm
Well I stepped through the back door 
        Bb       F          C
And the sky it stretched forever

 F       Bb
Painted clouds

   F         F     Bb
I hope they never come down

 Dm     Bb   
Ooooooh ooh

      Bb           C
That sou-ou-ou-ou-ound


F F  Bb


   F         Bb          
E -------------------
B -3-1---------------
G -----3-2-0---------
D -----------3-------
A -------------------
E -------------------

   F         Bb          
E -------------------
B -3-1---------------
G -----3-2-0---------
D -----------3-------
A -------------------
E -------------------

   Bb           C          
E ----------------------
B ----------------------
G -3-3-2-0--------------
D ---------3----2-------
A ----------------------
E ----------------------


   F           Bb          
E ---------------------
B -1-3-1---------------
G -------3-2-0---------
D -------------3-------
A ---------------------
E ---------------------


   F           Bb          
E ---------------------
B -1-3-1---------------
G -------3-2-0---------
D -------------3-------
A ---------------------
E ---------------------

   Bb        C          
E -------------------
B -------------------
G -3-3-2-0---0-------
D ---------3---------
A -------------------
E -------------------



            
            
Suggest correction
Creating personal tab
Creating personal tab
You can edit any tab online and save it as your Personal.

You can edit, replace or remove any tab part or add personal notes – all changes will be seen only by you.

Personal tabs can be accessed anytime from any device, even offline.
Learn more »
comments
print report bad tab
guest
You may want to rate the tab now too:
select rating
Wanna post a correction for this tab? Suggest correction