Oops, an error
Loading. Please wait.

Little Lovin tab

by Lissie
10 views 1 this week
no commentswrite comment
1 2 3 4 5
3 more votes to show rating
add to favorites
×
Save as Personal and add changes to this tab that will be seen only by you. Learn more ›
×
You can save this tab as Personal to edit and correct it or add notes. All changes will be seen only by you. Learn more »
launch autoscroll
font size
0
reset
how to read this tab
guitar tuner
edit
Autoscroll
slow
fast
+/-
esc
set tempo
stop
Awesome song here...  good guitar work, good lovin.

[Intro/Verse]  
(Option 1)
e|------0---------0----------0------------|
B|--------------------------------0-------|
G|--9---------8---------7---------1-------|
D|--9-9-------9-9-------9-9-------2-------|
A|----------------------------------------|
E|--0---------0---------0---------0-------|

(Option 2:  In Simple Chords)
e|--0---|---0---|---0---|---0----|
B|------|-------|-------|---0----|
G|--9---|---8---|---7---|---4----|
D|--9---|---6---|---6---|---6----|
A|--7---|---7---|---7---|--------|
E|--0---|---0---|---0---|---0----|
                          (Last chords can be a plane E)

(Option 3) 
(And on a video of hers, she did like so)
   (but it doesn’t sound completely right on its own)
e|----0---------0-------0----0------------|
B|----------------------------------------|
G|--9--------8-------7-------1------------|
D|---------------------------2------------|
A|--7--------6-------5--------------------|
E|--0--------0-------0-------0------------|

[Chorus]
    A    G#m/A     A6     E
e|--0------0-------0------0----------|
B|--5------5-------0------0----------|
G|--6------4-------4------1----------|
D|--7------6-------4------2----------|
A|--0------0-------0------2----------|
E|------------------------0----------|

[Post Chorus]   - why you runnin’ -
    E      G      Asus2    E
e|--0------3-------0-------0-------|
B|--0------0-------0-------0-------|
G|--1------0-------2-------1-------|
D|--2------0-------2-------2-------|
A|--2------2-------0-------2-------|
E|--0------3---------------0-------|

[Midsong riff]
e|----------------|--------------------------|
B|--9-------------|--9--------------------9--|
G|--11b-11br-9vv--|--11b-11br-9--------------|
D|----------------|-------------11----/9-----| (x2)
A|----------------|--------------------------|
E|----------------|--------------------------|

[Outro]
e|-------------------------|----------------------|
B|--10b11r10p8-----8-10b---|--10b11br10p8---8-----|
G|--------------9----------|--------------9---9b--|
D|-------------------------|----------------------|
A|-------------------------|----------------------|
E|-------------------------|----------------------|

e|------------------------|-------------------------|
B|------------------------|-------------------------|
G|--14b15r14p12----12-14--|--14b15r14p12----12------|
D|--------------14--------|--------------14----14v--|
A|------------------------|-------------------------|
E|------------------------|-------------------------|

[Ending]
e|----------|-------------|
B|--12------|--/15v-/17v--|
G|--14bbbb--|-------------|
D|----------|-------------|
A|----------|-------------|
E|----------|-------------|


************************************

| b  Bend note
| r  Release bend
| h  Hammer-on
| /  Slide up
| p  Pull-off
| v  vibe

************************************

            
            
Suggest correction
Creating personal tab
Creating personal tab
You can edit any tab online and save it as your Personal.

You can edit, replace or remove any tab part or add personal notes – all changes will be seen only by you.

Personal tabs can be accessed anytime from any device, even offline.
Learn more »
Give kudos to tab author, rate the tab!
1 2 3 4 5
comments
print report bad tab
guest
You may want to rate the tab now too:
select rating
Wanna post a correction for this tab? Suggest correction