Oops, an error
Loading. Please wait.

Mother tab

by Lissie
1,066 views 57 this week
no commentswrite comment
1 2 3 4 5
x 3
add to favorites
×
Save as Personal and add changes to this tab that will be seen only by you. Learn more ›
×
You can save this tab as Personal to edit and correct it or add notes. All changes will be seen only by you. Learn more »
launch autoscroll
font size
0
reset
how to read this tab
guitar tuner
edit
Autoscroll
slow
fast
+/-
esc
set tempo
stop
Author
Difficulty
[Intro]
e|---------------------------------------------------------------------------|
B|---------------------------------------------------------------------------|
G|-----------0-------------------0-------------------------------------------|
D|-----2---2---2-0-4-0-----2---2---2-0-4-0-----------------------------------| 
A|---2---3---------------2---3-----------------------------------------------|
E|-0-------------------0-----------------------------------------------------|

[Verse]
e|---------------------------------------------------------------------------|
B|---------------------------------------------------------------------------|
G|-----------0---------------------------------------------------------------|
D|-----2---2---2-0-4-0---------------------2---------------------------------| (x2)
A|---2---3-------------------------------2-----------------------------------|
E|-0-----------------------------------0-------------------------------------|
   Mother    Tell your children not to walk my way
        Tell your children not to hear my words
        What they mean what they say, Mother

e|---------------------------------------------------------------------------|
B|---------------------------------------------------------------------------|
G|-----0-----------------------0---------------------------------------------|
D|---2---2-0-4-0--------2----2---2-0-4-0-------------------2-----------------|
A|-3------------------2----3-----------------------------2-------------------|
E|------------------0----------------------------------0---------------------|
                    Mother,    Can you keep them in the dark for life

e|------------------------------------------------------------------------------------|
B|------------------------------------------------------------------------------------|
G|-----0-------------------------------------------0----------------------0-----------|
D|---2---2-0-4-0----------------------2----------2---2-0-4-0--------2---2---2-0-4-0---|
A|-3--------------------------------2----------3------------------2---3---------------|
E|--------------------------------0-----------------------------0---------------------|
       Can you hide them from the waiting world             Oh, mother
 
e|---------------------------------------------------------------------------|
B|---------------------------------------------------------------------------|
G|-----------0---------------------------------------------------------------|
D|-----2---2--2-0-4-0--------------------2-----------------------------------|
A|---2---3-----------------------------2-------------------------------------|
E|-0---------------------------------0---------------------------------------|
   Father,  Gonna take your daughter out tonight

e|---------------------------------------------------------------------------|
B|---------------------------------------------------------------------------|
G|-----0---------------------------0----------------------0------------------|
D|---2---2-0-4-0----------2------2---2-0-4-0-------2----2---2-0-4-0----------|
A|-3--------------------2------3-----------------2----3----------------------|
E|--------------------0------------------------0-----------------------------|
       Gonna show her my world                 Father

e|---------------------------------------------------------------------------|
B|---------------------------------------------------------------------------|
G|-----------------------------------------------------0------------0--------|
D|-2-2-2-2-2-2-2-2-4-4-4-4-4-4-4-4-5-5-5-5-----------2---0--------4---4------|
A|-3-3-3-3-3-3-3-3-5-5-5-5-5-5-5-5-7-7-7-7---------3------------5------------|
E|---------------------------------------------------------------------------|
           Not about to see your light    But if you wanna find hell with me  

e|---------------------------------------------------------------------------|
B|---------------------------------------------------------------------------|
G|-----------------------------------------------------0------------0--------|
D|-2-2-2-2-2-2-2-2-4-4-4-4-4-4-4-4-5-5-5-5-----------2---0--------4---4------|
A|-3-3-3-3-3-3-3-3-5-5-5-5-5-5-5-5-7-7-7-7---------3------------5------------|
E|---------------------------------------------------------------------------|
           I can show you what its like    Till you're bleeding  

e|---------------------------------------------------------------------------|
B|---------------------------------------------------------------------------|
G|-----------------------------------------------------0------------0--------|
D|-2-2-2-2-2-2-2-2-4-4-4-4-4-4-4-4-5-5-5-5-----------2---0--------4---4------|
A|-3-3-3-3-3-3-3-3-5-5-5-5-5-5-5-5-7-7-7-7---------3------------5------------|
E|---------------------------------------------------------------------------|
           Not about to see your light    But if you wanna find hell with me  

e|---------------------------------------------------------------------------|
B|---------------------------------------------------------------------------|
G|---------------------------------------------------------------------------|
D|-2-2-2-2-2-2-2-2-4-4-4-4-4-4-4-4-4-4-4-4-4-4-4-4-4-------------------------|
A|-3-3-3-3-3-3-3-3-5-5-5-5-5-5-5-5-2-2-2-2-2-2-2-2-2-------------------------|
E|---------------------------------------------------------------------------|
           I can show you what its...

Em
Mother
C         D              Em
Tell your children not to hold my hand
C         D              Em       C     D
Tell your children not to understand
Em         C   D
Oh, mother

Em
Oh,
C            D          Em
Do you wanna bang heads with me
C            D        Em
Do you wanna feel everything
C   D          Em     C
Oh, father

C            D           Em
   Not about to see your light
Em                    D          C
But if you wanna find hell with me
         D                     Em
I'm gonna show you what it's like
            D       C       
'Till you're bleedin'
         D                  Em
I'm not about to see your light
    Em                  D        C
But if you wanna find hell with me
           D          
I'm gonna show you what it's

Like

[Solo]
e|-12---14--14--12p10-----12--14--15--15-14----------------------------------|
B|--------------------12-----------------------------------------------------|
G|---------------------------------------------------------------------------|
D|---------------------------------------------------------------------------|
A|---------------------------------------------------------------------------|
E|---------------------------------------------------------------------------|

C            D           Em
   Not about to see your light
Em                    D          C
But if you wanna find hell with me
         D                     Em
I'm gonna show you what it's like
            D       C       
'Till you're bleedin'
         D                  Em
I'm not about to see your lie
    Em                  D        C
But if you wanna find hell with me
           D                     Em
I'm gonna show you what it's
Em
Yeah

[Outro]
e|-19-15-17-15----19-15-17-15----19-15-17-15----19-15-17-15----19-15-17-15----|
B|-------------17-------------17-------------17-------------17-------------17-|
G|----------------------------------------------------------------------------|
D|----------------------------------------------------------------------------| (x4)
A|----------------------------------------------------------------------------|
E|----------------------------------------------------------------------------|

e|-------------------10-10-10-10-10-10-10-10-10-10-10-10-10-10-10-10-10-10-10-10-|
B|-12-10-13-12-10-12-------------------------------------------------------------|
G|-------------------------------------------------------------------------------|
D|-------------------------------------------------------------------------------|
A|-------------------------------------------------------------------------------|
E|-------------------------------------------------------------------------------|


************************************

| p  Pull-off

************************************

            
            
Suggest correction
Creating personal tab
Creating personal tab
You can edit any tab online and save it as your Personal.

You can edit, replace or remove any tab part or add personal notes – all changes will be seen only by you.

Personal tabs can be accessed anytime from any device, even offline.
Learn more »
Give kudos to tab author, rate the tab!
1 2 3 4 5
comments
print report bad tab
guest
You may want to rate the tab now too:
select rating
Wanna post a correction for this tab? Suggest correction