Oops, an error
Loading. Please wait.

Lipstick And Bruises bass

version 2
version 2

Whole song

Interactive

by Lit
118 views 1 this week
no commentswrite comment
1 2 3 4 5
2 more votes to show rating
add to favorites
×
Save as Personal and add changes to this tab that will be seen only by you. Learn more ›
×
You can save this tab as Personal to edit and correct it or add notes. All changes will be seen only by you. Learn more »
launch autoscroll
font size
0
reset
guitar tuner
edit
Autoscroll
slow
fast
+/-
esc
set tempo
stop
Lit - Lipstick and Bruises

Tabbed by Steve Robertson

This is a really cool song to play on the bass it has a really good rythm to it.
if you get stuck with the tab email me stevo-360@hotmail.co.uk

Intro: (just before coming in with main bass line)
F#|-14\12-----|
C#|------14---|
G#|-----------|
D#|-----------|


Pre-Verse 1:
F#|-------------------------------------|
C#|-------------------------------------|
G#|-------------554--------------554----|
D#|-355355355350---0-355355355350---0---|


Verse 1: (similar to pre-chorus except you let it ring before 350)
F#|----------------------------------------------------|
C#|----------------------------------------------------|
G#|-------------554--------------554--------------554--|
D#|-35535535-350---0-35535535-350---0-35535535-350---0-|

------------------|
------------------|
-------------554--|
-35535535-350---0-|


Pre-Chorus 1:
F#|----------------------------------------------------|
C#|----------------------------------------------------|
G#|-55555555-------8-55555555-------8-55555555---------|
D#|---------6666656----------6666656----------66666563-|


Chorus 1:
F#|----------------------------------------------------------|
C#|----------------------------------3-----------------------|
G#|-------32-1111-113-------32-1111/5-53-------32-1111-113---|
D#|-1111-0------------1111-0-------------1111-0--------------|

---------------------|
---------------------|
-------32-1111111/8--|
-1111-0--------------|


Pre-Verse 2: (notes go up to 10 and 12)
F#|--------------------------------------------------|
C#|--------------------------------------------------|
G#|-------------554/10121210121210121210--10---------|
D#|-355355355350------------------------12--12108\---|


Verse 2:
F#|----------------------------------------------------|
C#|----------------------------------------------------|
G#|-------------554--------------554--------------554--|
D#|-35535535-350---0-35535535-350---0-35535535-350---0-|

------------------|
------------------|
-------------554--|
-35535535-350---0-|


Pre-Chorus 2:
F#|----------------------------------------------------|
C#|----------------------------------------------------|
G#|-55555555-------8-55555555-------8-55555555---------|
D#|---------6666656----------6666656----------66666563-|


Chorus 2:
F#|----------------------------------------------------------|
C#|----------------------------------3-----------------------|
G#|-------32-1111-113-------32-1111/5-53-------32-1111-113---|
D#|-1111-0------------1111-0-------------1111-0--------------|

---------------------|
---------------------|
-------32-1111111/8--|
-1111-0--------------|


Guitar Solo:
F#|----------------------------------------------------|
C#|----------------------------------------------------|
G#|-------------554--------------554--------------554/-|
D#|-355355355350---0-355355355350---0-35535535-350-----|

--------------------------------|
-------------------10--101214---|
-101212101212101212--12---------|
--------------------------------|


Pre-chorus 3: (notes go up to 12 and 13)
F#|-------------------------------------------------------|
C#|----------------------12-------------------------12----|
G#|-55555555-131313131313--13\-55555555-131313131313--13\-|
D#|-------------------------------------------------------|

------------------------------------------------|
----------------------12------------------------|
-55555555-131313131313--13\-55555555------------|
------------------------------------6666656\3---|


Chorus 3:
F#|--------------------------------------------------------|
C#|----------------------------------3---------------------|
G#|-------32-1111-113-------32-1111/5-53-------32-1111-113-|
D#|-1111-0------------1111-0-------------1111-0------------|

-------------------------------------3-5 --------------3-5-|
--------------------------------------3-----------------3--|
-------32-111113131313-------32-11115----------32-11115----|
-1111-0----------------1111-0------------1111-0------------|

---------------3-5 --------------------|
----------------3----------------------|
-------32-11115----------32-11111118---|
-1111-0------------1111-0--------------|


Outro:
F#|----------------------------------------------------|
C#|----------------------------------------------------|
G#|-------------554--------------554--------------554--|
D#|-355355355350---0-355355355350---0-355355355350---0-|

--------------------|
--------------------|
-------------554----|
-355355355350---0---|

-------|
-------|
-554---|
-------|

            
            
Suggest correction
Creating personal tab
Creating personal tab
You can edit any tab online and save it as your Personal.

You can edit, replace or remove any tab part or add personal notes – all changes will be seen only by you.

Personal tabs can be accessed anytime from any device, even offline.
Learn more »
Give kudos to tab author, rate the tab!
1 2 3 4 5
comments
print report bad tab
guest
You may want to rate the tab now too:
select rating
Wanna post a correction for this tab? Suggest correction