Oops, an error
Loading. Please wait.
We have an official My Own Worst Enemy tab made by UG professional guitarists. Check out the tab »
×
by Lit
253 views 3 this week
1 commentread comment
1 2 3 4 5
2 more votes to show rating
add to favorites
×
Save as Personal and add changes to this tab that will be seen only by you. Learn more ›
×
You can save this tab as Personal to edit and correct it or add notes. All changes will be seen only by you. Learn more »
launch autoscroll
font size
0
reset
guitar tuner
backing track
0:00
0:00
edit
Autoscroll
slow
fast
+/-
esc
set tempo
stop
Author
Difficulty
Unregistered
-------------------------------------------------------------------------------
                             My Own Worst Enemy - Lit
-------------------------------------------------------------------------------
Tabbed by: Sarah

Note: I haven't found any tab with the filler that's played in the chorus
so I wrote out what I think sounds pretty close. 

Tuning: standard

intro (come in at 0:08)

G|-----------------------|
D|-----------------------|
A|-----------------------|
E|------------------75~--|  

G|-----------------------|
D|-----------------------|
A|-----------------------|
E|-00--000--000--00-75---|  (x2)


verse 1

G|-------------------------------------------|
D|-------------------------------------------|
A|-----------------------------------------7-|
E|-00--000--000--0075~--00--000--000--0075---|

G|-------------------------------------------| 
D|-------------------------------------------|
A|-------------------------------------------|
E|-00--000--000--0075~--00--000--000--0075~--|

  
chorus 1

G|--------------------------------------------|
D|--------------------------------------------|
A|--------------------------------------------|
E|-0-0-000~-02-2-222~-2/5-5-555~-57-7-777~-7--|

G|-------------------------------------------------79----|
D|----------------------75-----------------------79------|
A|--------------------7~---75-----------------79~--------|
E|-0-0-000-02-2-22-57---------5-5-555-57-7-777-----------|


post chorus

G|-----------------------|
D|-----------------------|
A|-----------------------|
E|-00--000--000--00-75---|  (x2)


verse 2

G|-------------------------------------------|
D|-------------------------------------------|
A|-----------------------------------------7-|
E|-00--000--000--0075~--00--000--000--0075---|

G|-------------------------------------------| 
D|-------------------------------------------|
A|-------------------------------------------|
E|-00--000--000--0075~--00--000--000--0075~--|


chorus 2

G|--------------------------------------------|
D|--------------------------------------------|
A|--------------------------------------------|
E|-0-0-000~-02-2-222~-2/5-5-555~-57-7-777~-7--|

G|-------------------------------------------------79----|
D|----------------------75-----------------------79------|
A|--------------------7~---75-----------------79~--------|
E|-0-0-000-02-2-22-57---------5-5-555-57-7-777-----------|


bridge

G|-----------------------|
D|-----------------------|
A|-----------------------|
E|-00--000--000--00-75---|  (x4)


chorus 3

G|--------------------------------------------|
D|--------------------------------------------|
A|--------------------------------------------|
E|-0-0-000~-02-2-222~-2/5-5-555~-57-7-777~-7--|

G|-------------------------------------------------|
D|----------------------75-----------------999-7---|
A|--------------------7~---75--------------------9-|
E|-0-0-000-02-2-22-57---------5-5-555-57-7---------|

G|--------------------------------------------|
D|--------------------------------------------|
A|--------------------------------------------|
E|-0-0-000~-02-2-222~-2/5-5-555~-57-7-777~-7--|

G|--------------------------------------------79----|
D|------------------------------------------79------|
A|---------------------------------------79~--------|
E|-0-0-000~-02-2-222~-2/5-5-555~-57-7-777-----------|


outro

G|-----------------------|
D|-----------------------|
A|-----------------------|
E|-00--000--000--00-75---|  (x2)



| /  slide up
| \  slide down
| h  hammer-on
| p  pull-off
| ~  vibrato
| +  harmonic
| x  Mute note
===============================================================================

            
            
Suggest correction
Creating personal tab
Creating personal tab
You can edit any tab online and save it as your Personal.

You can edit, replace or remove any tab part or add personal notes – all changes will be seen only by you.

Personal tabs can be accessed anytime from any device, even offline.
Learn more »
Give kudos to tab author, rate the tab!
1 2 3 4 5
comments
print report bad tab
1 comment total.
0 reply
Zack80 10 Sep 01, 2017 04:36 PM

Best tab for this song

guest
Wanna post a correction for this tab? Suggest correction