Oops, an error
Loading. Please wait.

Slip Tab

by Lit
266 views 1 this week
no commentswrite comment
1 2 3 4 5
please rate
add to favorites
launch autoscroll
font size
0
reset
how to read this tab
guitar tuner
Tab Pro tools
  • play this tab
  • loop segment
  • change instrument
  • show fretboard
  • metronome
×
Best way to learn
"Slip"
Autoscroll
slow
fast
+/-
esc
set tempo
stop
This is a fairly easy song.  Listen to the CD for timing and strumming patterns

Slip
As performed on "Atomic"
Written by A. Jay and Jeremy Popoff

Drop D
~      vibrating
PM     palm muting
x      muffled strings


Intro
Clean                                Go off into this at the end
e[----------------------------------]--------------------------
B[----------------------------------]--------------------------
G[-9------9-------11------11--------]--------------------------
D[---11-----11-------11------11-----]-2-2-2-2-2-2-2-2----------
A[------12-----12-------12------12--]-2-2-2-2-2-2-2-2----------
D[----------------------------------]-2-2-2-2-2-2-2-2----------
                                     PM...............

Chorus/Main Riff
Distortion
e[----------------------------------------------------
B[----------------------------------------------------
G[-4-------------4----------4--3----------------------
D[-4------2------4------2---4--3--6--4--2-------------
A[-2------2------2------2---2--1--6--4--2-------------
D[--------2-------------2---------6--4--2-------------

Verse   (x2)
Distortion
e[----------------------------------------------------
B[----------------------------------------------------
G[-2-------------2-------------2----------------------
D[-2------4------2------4------2---4---2--------------
A[-0------4------0------4------0---4---2--------------
D[--------4-------------4----------4---2--------------

Chorus

Verse

Chorus

Interlude
Distortion
e[---------]-------------------------------------------------------------
B[---------]-------------------------------------------------------------
G[-x-x-x-x-]-------------------------------------------------------------
D[-x-x-x-x-]-7---4---7---4---7---4---2------4---2---4---2---4---2---0----
A[-x-x-x-x-]-7---4---7---4---7---4---2------4---2---4---2---4---2---0----
D[-x-x-x-x-]-7---4---7---4---7---4---2------4---2---4---2---4---2---0----

Pre-solo  (x2)
Distortion
e[------------------------------------------------------
B[------------------------------------------------------
G[-4--------3-------------------------------------------
D[-4--------3--4--2-------------------------------------
A[-2--------1--4--2-------------------------------------
D[-------------4--2-------------------------------------

GUITAR SOLO
Distorion
e[------------------------------------------------------
B[------------------------------------------------------
G[------------------------------------------------------
D[-------------------------------------9~~~-------------
A[-----9~~~-11-9-7-6~~~-----9~~~-7-6-7------------------
D[-9~~~-----------------9~~~----------------------------

e[------------------------------------------------------
B[------------------------------------------------------
G[------------------------------------------------------
D[-13-14-13---11~~~-9~~~-8-9-8--------------------------
A[------------------------------10~~~-9~~~--------------
D[------------------------------------------------------

Chorus (x2)

Bridge (x2)


And that's it

Song Structure:
Intro
Chorus/Main Riff
Verse
Chorus
Verse
Chorus
Interlude
Pre-solo
GUITAR SOLO
Chorus (x2)
Interlude (x2)
comments
We did not receive enough feedback on this tab! Please rate:
print report bad tab
1 2 3 4 5
I want to post or [tab]
guest
You may want to rate the tab now too:
select rating
Please do not post tabs as comments. Select "correction" instead!