Oops, an error
Loading. Please wait.

Sunny Weather bass

by Lit
152 views 1 this week
no commentswrite comment
1 2 3 4 5
2 more votes to show rating
add to favorites
×
Save as Personal and add changes to this tab that will be seen only by you. Learn more ›
×
You can save this tab as Personal to edit and correct it or add notes. All changes will be seen only by you. Learn more »
launch autoscroll
font size
0
reset
guitar tuner
edit
Autoscroll
slow
fast
+/-
esc
set tempo
stop
Lit - Sunny Weather

Tabbed By Steve Robertson

This is such a cool song to play. There is one line in the interlude I cant get due to 
the drums going over the top but you can use root notes to cover this. Any questions send 
me an email at stevo-360@hotmail.co.uk and il be happy to help. Cheers

Drop D Tuning

Intro:
G|-------------------------------------------------------------|
D|-------------------------------------------------------------|
A|-------1—111111----------1—111111----------1—111111----------|
D|-1/7\1----------1-113333----------1-113333----------1-113333-|


-------------------|
-------------------|
-------------------|
-4~6~8--1—111111---|


Verse 1:
G|----------------------------------------------------------------|
D|----------------------------------------------------------------|
A|-1—111111----------1—111111----------1—111111-------------------|
D|----------1-113333----------1-113333----------1-113333-4-444444-|

------------------------|
------------------------|
------------------------|
1—111111-4-4/8-10-8-1---|



Chorus 1:
G|----------------------------------------------------------------|
D|----------------------------------------------------------------|
A|-1—111111----------1—111111----------1—111111----------6-666666-|
D|----------1-113333----------1-113333----------6-666666----------|

--------------|
-6-8-10-8-6---|
--------------|
--------------|


Bridge 1:
G|---------------------------------------|
D|---------------------------------------|
A|-1—111111----------1—111111------------|
D|----------1-113333----------1-113333---|



Verse 2:
G|----------------------------------------------------------------|
D|----------------------------------------------------------------|
A|-1—111111----------1—111111----------1—111111-------------------|
D|----------1-113333----------1-113333----------1-113333-4-444444-|

-------------------------|
-------------------------|
-------------------------|
-1—111111-4-4/8-10-8-1---|


Chorus 2:
G|----------------------------------------------------------------|
D|----------------------------------------------------------------|
A|-1—111111----------1—111111----------1—111111-------------------|
D|----------1-113333----------1-113333----------6-666666-1—111111-|

-------------|
-------------|
-------------|
-1/6-8-6-8---|


Interlude: (sorry guys I can’t hear what’s going on in first line but this will work instead)
G|------------------------------------------------------------------|
D|------------------------------------------------------------------|
A|------------------------------------------------------------------|
E|-4444444444444444111111111111111144444444444444441111111111111111-


-------------------------------------------------------------|
-6h8-6h8-6h8-6h8-6---6h8-6h8-6h8-6h8---6-6h8-6h8-6h8---686---|
------------------86-----------------68--------------68---86-|
-------------------------------------------------------------|

--------------------|
--------------------|
--------------------|
-6666666666666666---|


Chorus 3:
G|----------------------------------------------------------------|
D|----------------------------------------------------------------|
A|-1—111111----------1—111111----------1—111111----------6-666666-|
D|----------1-113333----------1-113333----------6-666666----------|

-----------------------------------------------------------------|
-------10-8------------------------------------------------------|
-6-66/8-----—111111----------1—111111----------1—111111----------|
--------------------1-113333----------1-113333----------6-666666-|

--------------------|
--------------------|
-1—11111111111111---|
--------------------|

Outro:
G|------------------13h15-13h15-13h15-15-13-----------------------|
D|---------6h8-----------------------------15-13-12-13-12---------|
A|-1------------------------------------------------------13--1---|
D|----------------------------------------------------------------|

            
            
Suggest correction
Creating personal tab
Creating personal tab
You can edit any tab online and save it as your Personal.

You can edit, replace or remove any tab part or add personal notes – all changes will be seen only by you.

Personal tabs can be accessed anytime from any device, even offline.
Learn more »
Give kudos to tab author, rate the tab!
1 2 3 4 5
comments
print report bad tab
guest
You may want to rate the tab now too:
select rating
Wanna post a correction for this tab? Suggest correction