Oops, an error
Loading. Please wait.

Close My Eyes Forever tab

version 1
version 1

Whole song

Interactive

84,668 views 117 this week
2 commentsread comments
1 2 3 4 5
x 19
add to favorites
×
Save as Personal and add changes to this tab that will be seen only by you. Learn more ›
×
You can save this tab as Personal to edit and correct it or add notes. All changes will be seen only by you. Learn more »
launch autoscroll
font size
0
reset
how to read this tab
guitar tuner
backing track
0:00
0:00
edit
Autoscroll
slow
fast
+/-
esc
set tempo
stop
Author
[Chords progression]
          Bb                   Gm                   Dm                    C
      x 1 3 3 3 x          3 5 5 3 3 3          x 5 7 7 6 5          x 3 5 5 5 0

           A
      x 0 2 2 2 x

(Gtr 1) (E A D G B E) - 'Gtr. 1 (12-string acous.)'
(Gtr 2) (E A D G B E) - 'G2'(Overdriven guitar)

[Intro]
(Gtr 1)
e|---------0-----------------0-------|----------------------------------|
B|-----------0-----------------0-----|-----0-----0---------0-----0------|
G|-----5-------5---------5-------5---|---7-----7-----7---7-----7-----7--|
D|---7---7-------7-(7)-7---7-------7-|-5-----5-----5---5-----5-----5----|
A|-0----------------0----------------|----------------------------------|
E|-----------------------------------|----------------------------------|

e|-------------------------0-------|---------0---------------------------|
B|-----0-----0---------0-----0-----|-----------0---------------------0---|
G|---5-----5-----5---5---------5---|-----5-------5-----------5-----7---7-|
D|-3-----3-----3---3-----3-------3-|---7---7-------7-(7)---7----5--------|
A|---------------------------------|-0---------------(0)-0-----(0)-------|
E|---------------------------------|-------------------------------------|

[Verse 1]
e|----------0-----------------0-------|----------------------------------|
B|------------0-----------------0-----|-----0-----0---------0-----0------|
G|------5-------5---------5-------5---|---7-----7-----7---7-----7-----7--|
D|----7---7-------7-(7)-7---7-------7-|-5-----5-----5---5-----5-----5----|
A|--0----------------0----------------|----------------------------------|
E|------------------------------------|----------------------------------|

e|-----------------------------0---|---------0-------------------------|
B|-----0-----0---------0-----0---0-|-----------0---------------------0-|
G|---5-----5-----5---5-----5-------|-----5-------5-----------5-----7---|
D|-3-----3-----3---3-----3---------|---7---7-------7-(7)---7-----5-----|
A|---------------------------------|-0---------------(0)-0-----0-------|
E|---------------------------------|-----------------------------------|

e|---------0-----------------0-------|---------0-----------------------|
B|-----------0-----------------0-----|-----0-----0---------0-----0---0-|
G|-----5-------5---------5-------5---|---7---------7-----7-----7-------|
D|---7---7-------7-(7)-7---7-------7-|-5-----5-------5-5-----5-----5---|
A|-0----------------0----------------|---------------------------------|
E|-----------------------------------|---------------------------------|

e|-------------------------0-------|---------0-----------------------|
B|-----0-----0---------0-----0-----|-----------0-------------------0-|
G|---5-----5-----5---5---------5---|-----5-------5-----------5-------|
D|-3-----3-----3---3-----3-------3-|---7---7-------7-(7)---7-----7---|
A|---------------------------------|-0-------------------0-----0-----|
E|---------------------------------|---------------------------------|

[Chorus]                               
e|---------------------------------|
B|-------0-------------------------|
G|-----2---2---------2-----2---0---|
D|---3-------3-----3-----3---------|
A|-3-----------3-3-----3-----3-----|
E|---------------------------------|

e|---------0-----------------------|-------------------------------|
B|-----------0-----3-----1-----0---|-------0-----------------------|
G|-----2-------2-----2-----2-----0-|-----2---2---------2-----2---0-|
D|---2---2-------2-----2-----2-----|---3-------3-----3-----3-------|
A|-0-------------------------------|-3-----------3-3-----3-----3---|
E|---------------------------------|-------------------------------|

e|---------0------------------------|-------------------------------|
B|-----------0-----3-----1-----0----|-------0-----------------------|
G|-----2-------2-----2-----2-----0--|-----2---2---------2-----2---0-|
D|---2---2-------2-----2-----2------|---3-------3-----3-----3-------|
A|-0--------------------------------|-3-----------3-3-----3-----3---|
E|----------------------------------|-------------------------------|

e|---------0-----------------------|------------------------------|
B|-----------0-----3-----1-----0---|-------0----------------------|
G|-----2-------2-----2-----2-----0-|-----2---2---------2-----2----|
D|---2---2-------2-----2-----2-----|---3-------3-----3-----3------|
A|-0-------------------------------|-3-----------3-3-----3-----3/-|
E|---------------------------------|------------------------------|

e|-------------------------0-------|-----------0-------------0----|
B|---3---------3-----3-------0-----|---------0---0-----------0----|
G|---------0-----0-------0-------0-|-------0-------0-------0------|
D|-------5---5---------5-------5---|-----5---------------5--------|
A|-----5---------------------------|---5---------------5----------|
E|-3---------------3---------------|-3---------------3------------|

[Verse 2]
e|----------0-----------------0-------|----------------------------------|
B|------------0-----------------0-----|-----0-----0---------0-----0------|
G|------5-------5---------5-------5---|---7-----7-----7---7-----7-----7--|
D|----7---7-------7-(7)-7---7-------7-|-5-----5-----5---5-----5-----5----|
A|--0----------------0----------------|----------------------------------|
E|------------------------------------|----------------------------------|

e|-----------------------------0---|---------0-------------------------|
B|-----0-----0---------0-----0---0-|-----------0---------------------0-|
G|---5-----5-----5---5-----5-------|-----5-------5-----------5-----7---|
D|-3-----3-----3---3-----3---------|---7---7-------7-(7)---7-----5-----|
A|---------------------------------|-0---------------(0)-0-----0-------|
E|---------------------------------|-----------------------------------|

e|---------0-----------------0-------|---------0-----------------------|
B|-----------0-----------------0-----|-----0-----0---------0-----0---0-|
G|-----5-------5---------5-------5---|---7---------7-----7-----7-------|
D|---7---7-------7-(7)-7---7-------7-|-5-----5-------5-5-----5-----5---|
A|-0----------------0----------------|---------------------------------|
E|-----------------------------------|---------------------------------|

e|-------------------------0-------|---------0-----------------------|
B|-----0-----0---------0-----0-----|-----------0-------------------0-|
G|---5-----5-----5---5---------5---|-----5-------5-----------5-------|
D|-3-----3-----3---3-----3-------3-|---7---7-------7-(7)---7-----7---|
A|---------------------------------|-0-------------------0-----0-----|
E|---------------------------------|---------------------------------|

[Chorus]                            
e|---------------------------------|
B|-------0-------------------------|
G|-----2---2---------2-----2---0---|
D|---3-------3-----3-----3---------|
A|-3-----------3-3-----3-----3-----|
E|---------------------------------|

e|---------0-----------------------|-------------------------------|
B|-----------0-----3-----1-----0---|-------0-----------------------|
G|-----2-------2-----2-----2-----0-|-----2---2---------2-----2---0-|
D|---2---2-------2-----2-----2-----|---3-------3-----3-----3-------|
A|-0-------------------------------|-3-----------3-3-----3-----3---|
E|---------------------------------|-------------------------------|

e|---------0------------------------|-------------------------------|
B|-----------0-----3-----1-----0----|-------0-----------------------|
G|-----2-------2-----2-----2-----0--|-----2---2---------2-----2---0-|
D|---2---2-------2-----2-----2------|---3-------3-----3-----3-------|
A|-0--------------------------------|-3-----------3-3-----3-----3---|
E|----------------------------------|-------------------------------|

e|---------0-----------------------|------------------------------|
B|-----------0-----3-----1-----0---|-------0----------------------|
G|-----2-------2-----2-----2-----0-|-----2---2---------2-----2----|
D|---2---2-------2-----2-----2-----|---3-------3-----3-----3------|
A|-0-------------------------------|-3-----------3-3-----3-----3/-|
E|---------------------------------|------------------------------|
                                                        
e|---------------------------------|---------0-----------------0---|
B|---3p0---0---------3-------------|-----------0---------------0---|
G|-------0-----0---0-----0-----0---|-----0-------0-----------0-----|
D|-----------5---------5-----5-----|---2---2-------2-(2)---2-------|
A|---------------5---------5-----5-|---------------------2---------|
E|-0-------------------------------|-0----------------0------------|


[Bridge]
(From here double guitar starts, one is Overdriven (Rhythm) and another is 
Distortion (solo), while playing the solo, the rhythm is indicated above it.)

 Bb         Gm         Dm         C <<-- Overdriven guitar
(Gtr 2)
e|----------|-3--------|-5--------|------|
B|-3--------|-3--------|-6--------|-5----|
G|-3--------|-3--------|-7--------|-5----|
D|-3--------|-5--------|-7--------|-5----|
A|-1--------|-5--------|-5--------|-3----|
E|----------|-3--------|----------|------|

 Bb         Gm         Dm         A  <<-- Overdriven guitar
e|----------|-3--------|-5--------|-----------------|
B|-3--------|-3--------|-6--------|-----------------|
G|-3--------|-3--------|-7--------|-----------------|
D|-3--------|-5--------|-7--------|-------/8-10-8p7-|
A|-1--------|-5--------|-5--------|-----------------|
E|----------|-3--------|----------|-----------------|

  Bb                           Gm   <<-- Overdriven guitar
       ~~~~~~~~
e|----------------------------|------------------------------------------------|
B|-------------------15-15-15-|-15S14-14-14-14p12-12-12-12S10-10-10-12-13b15---|
G|-------------------15-15-15-|-15S14-14-14-14p12-12-12-12S10-10-10-12-12b14---|
D|-8p7-8--------(8)/----------|------------------------------------------------|
A|----------------------------|------------------------------------------------|
E|----------------------------|------------------------------------------------|

  Dm  <<-- Overdriven guitar
  
             ~~~~~~~~~
e|-------------------------------17-|
B|-15b18-13----------------------15-|
G|-12b14-10-14---------(14)\-/19----|
D|----------12---------(12)\-/17----|
A|----------------------------------|
E|----------------------------------|

  C                                             Bb  <<-- Overdriven guitar
                        ~~~~~~~                      ~~~~~~~~
e|-17----17------------------------------------|----------------------------|
B|-15----15------------------------------------|-------------------15-15-15-|
G|----19---------------------------------------|-------------------15-15-15-|
D|----17---------17b19-17------(17)\-/8-10-8p7-|-8p7-8--------(8)/----------|
A|---------------15b17-15------(15)\-----------|----------------------------|
E|---------------------------------------------|----------------------------|

  Gm  <<-- Overdriven guitar
e|-----------------------------------------------|
B|-15S13-13-13-13p11-11-11-11S10-10-10-11-13b15--|
G|-15S14-14-14-14p12-12-12-12S10-10-10-12-12b14--|
D|-----------------------------------------------|
A|-----------------------------------------------|
E|-----------------------------------------------|

  Dm   <<-- Overdriven guitar
   
             ~~~~~~~~~
e|-------------------------------22-|
B|-15b18-13-------------------20----|
G|-12b14-10-14---------(14)\-----19-|
D|----------12---------(12)\-/17----|
A|----------------------------------|
E|----------------------------------|

[Verse 3]
                     ~~~~~~~~~~~~~~~~
e|-22----22---------21---------|-20---------------------------------|
B|----20---------20------------|------------------------------------|
G|-19----19---------18---------|-17---------------------------------|
D|----17---------17------------|------------------------------------|
A|-----------------------------|------------------------------------|
E|-----------------------------|------------------------------------|

Overdriven guitar
                                (Gtr 1)
e|-----------------------------|----------0-----------------0-------|
B|--2--------------------------|------------0-----------------0-----|
G|--2--------------------------|------5-------5---------5-------5---|
D|--2--------------------------|----7---7-------7-(7)-7---7-------7-|
A|--0--------------------------|--0----------------0----------------|
E|-----------------------------|------------------------------------|

(Gtr 1)
e|---------------------------------|
B|-----0-----0---------0-----0-----|
G|---7-----7-----7---7-----7-----7-|
D|-5-----5-----5---5-----5-----5---|
A|---------------------------------|
E|---------------------------------|

(Gtr 1)
e|-----------------------------0---|---------0-------------------------|
B|-----0-----0---------0-----0---0-|-----------0---------------------0-|
G|---5-----5-----5---5-----5-------|-----5-------5-----------5-----7---|
D|-3-----3-----3---3-----3---------|---7---7-------7-(7)---7-----5-----|
A|---------------------------------|-0---------------(0)-0-----0-------|
E|---------------------------------|-----------------------------------|

e|---------0-----------------0-------|
B|-----------0-----------------0-----|
G|-----5-------5---------5-------5---|
D|---7---7-------7-(7)-7---7-------7-|
A|-0----------------0----------------|
E|-----------------------------------|

e|---------0-----------------------|-------------------------0-------|
B|-----0-----0---------0-----0---0-|-----0-----0---------0-----0-----|
G|---7---------7-----7-----7-------|---5-----5-----5---5---------5---|
D|-5-----5-------5-5-----5-----5---|-3-----3-----3---3-----3-------3-|
A|---------------------------------|---------------------------------|
E|---------------------------------|---------------------------------|

[Chorus]
e|---------0------------------------|---------------------------------|
B|-----------0-------------------0--|-------0-------------------------|
G|-----5-------5-----------5--------|-----2---2---------2-----2---0---|
D|---7---7-------7-(7)---7-----7----|---3-------3-----3-----3---------|
A|-0-------------------0-----0------|-3-----------3-3-----3-----3-----|
E|----------------------------------|---------------------------------|

e|---------0-----------------------|-------------------------------|
B|-----------0-----3-----1-----0---|-------0-----------------------|
G|-----2-------2-----2-----2-----0-|-----2---2---------2-----2---0-|
D|---2---2-------2-----2-----2-----|---3-------3-----3-----3-------|
A|-0-------------------------------|-3-----------3-3-----3-----3---|
E|---------------------------------|-------------------------------|

e|---------0------------------------|-------------------------------|
B|-----------0-----3-----1-----0----|-------0-----------------------|
G|-----2-------2-----2-----2-----0--|-----2---2---------2-----2---0-|
D|---2---2-------2-----2-----2------|---3-------3-----3-----3-------|
A|-0--------------------------------|-3-----------3-3-----3-----3---|
E|----------------------------------|-------------------------------|

e|---------0-----------------------|------------------------------|
B|-----------0-----3-----1-----0---|-------0----------------------|
G|-----2-------2-----2-----2-----0-|-----2---2---------2-----2----|
D|---2---2-------2-----2-----2-----|---3-------3-----3-----3------|
A|-0-------------------------------|-3-----------3-3-----3-----3/-|
E|---------------------------------|------------------------------|
                                                         
e|---------------------------------|---------0-----------------0---|
B|---3p0---0---------3-------------|-----------0---------------0---|
G|-------0-----0---0-----0-----0---|-----0-------0-----------0-----|
D|-----------5---------5-----5-----|---2---2-------2-(2)---2-------|
A|---------------5---------5-----5-|---------------------2---------|
E|-0-------------------------------|-0----------------0------------|

e|---------0-----------------0-------|---------------------------------|
B|-----------0-----------------0-----|-----0-----0---------0-----0-----|
G|-----5-------5---------5-------5---|---7-----7-----7---7-----7-----7-|
D|---7---7-------7-(7)-7---7-------7-|-5-----5-----5---5-----5-----5---|
A|-0----------------0----------------|---------------------------------|
E|-----------------------------------|---------------------------------|

e|-------0-----------------------|--------0----|--------|
B|---------0---------0-----0-----|------0------|--------|
G|---5-------5-----5-----5-----5-|----5--------|--------|
D|-3---3-------3-3-----3-----3---|-------------|--------|
A|-------------------------------|-0-----------|--------|
E|-------------------------------|-------------|--------|


********************************************************************************

| h   - hammer-on
| p   - pull-off
| b   - bend
| /\  - slide into or out of (from/to "nowhere")
| s   - legato slide
| S   - shift slide
| ~   - vibrato
| \n/  - tremolo bar dip; n = amount to dip
| \n  - tremolo bar down
| n/  - tremolo bar up
|/n\  - tremolo bar inverted dip
| =   - hold bend; also acts as connecting device for hammers/pulls
| ()  - still ringing the previous note

********************************************************************************

            
            
Suggest correction
Creating personal tab
Creating personal tab
You can edit any tab online and save it as your Personal.

You can edit, replace or remove any tab part or add personal notes – all changes will be seen only by you.

Personal tabs can be accessed anytime from any device, even offline.
Learn more »
comments
print report bad tab
2 comments total.
0 reply
pHaKe 1,007 Jan 05, 2006 02:33 PM

close, but not right.

0 reply
Chris131 16 Mar 19, 2009 03:42 AM

cool man..good job..its a great song

guest
You may want to rate the tab now too:
select rating
Wanna post a correction for this tab? Suggest correction