Oops, an error
Loading. Please wait.

Gotta Let Go tab

version 2
version 2

Whole song

1,910 views 3 this week
no commentswrite comment
1 2 3 4 5
x 3
add to favorites
×
Save as Personal and add changes to this tab that will be seen only by you. Learn more ›
×
You can save this tab as Personal to edit and correct it or add notes. All changes will be seen only by you. Learn more »
launch autoscroll
font size
0
reset
how to read this tab
guitar tuner
edit
Autoscroll
slow
fast
+/-
esc
set tempo
stop
Author
Difficulty
---------------------------------------------------------------
                             Gotta Let Go - Lita Ford
---------------------------------------------------------------
Tabbed by: Spence (Alex's Disciple)
Email: pointgodspence@hotmail.com

Tuning: Standard

This tab was already tabbed but it was pretty bad 
and the solo wasn’t finished so here is 
Gotta Let Go by Lita Ford.

This is the intro, play it four times alone
And four times with drums

e|------------------------------------------------------------|
B|------------------------------------------------------------|
G|----------7-6---------5-4-----------------------------------|
D|----------7-7---------5-5-----------------------------------|         X8
A|--0-0-0---------0-0-----------------------------------------|
E|------------------------------------------------------------|

Verse:

You feel the power, you feel it getting strong
e|------------------------------------------------------------|
B|------------------------------------------------------------|
G|------------------------------------------------------------|
D|------------------------------------------------------------|
A|--3/5-5--5-----3/5-5--7--8-8-7-3----------------------------|
E|--1/3-3--3-----1/3-3--5--6-6-5-1----------------------------|

We'll make it carry everyone along
e|------------------------------------------------------------|
B|------------------------------------------------------------|
G|------------------------------------------------------------|
D|--------------------8-8-7-7---------------------------------|
A|--3/5-5--5---3/5-5---6-6-5-5--------------------------------|
E|--1/3-3--3---1/3-3------------------------------------------|

You bought a ticket to our surprise attack
e|------------------------------------------------------------|
B|------------------------------------------------------------|
G|------------------------------------------------------------|
D|------------------------------------------------------------|
A|--3/5-5--5-----3/5-5--7--8-8-7-3----------------------------|
E|--1/3-3--3-----1/3-3--5--6-6-5-1----------------------------|

You came to rock and there's no turning back
e|------------------------------------------------------------|
B|------------------------------------------------------------|
G|------------------------------------------------------------|
D|------------10--8-8-3-3-5-5-7-------------------------------|
A|--3/5-5--5---8--6-6-1-1-3-3-5-------------------------------|
E|--1/3-3--3--------------------------------------------------|

Bridge:

Don't you want to be the main attraction
All you need's a little chain reaction
If you want to set the night on fire
e|--------------------------------------------------------------|
B|--------------------------------------------------------------|
G|--------------------------------------------------------------|
D|--8---10------8----12--10-------5-----7-----------------------|
A|--6----8------6----10---8-------3-----5-----------------------|
E|--------------------------------------------------------------|

Chorus:

Well you gotta let go
e|--------------------------------------------------------------|
B|--------------------------------------------------------------|
G|----------7-6---------5-4-------------------------------------|
D|----------7-7---------5-5-------------------------------------|         X2
A|--0-0-0---------0-0-------------------------------------------|
E|--------------------------------------------------------------|

Well you gotta let go if you really wanna rock tonight
e|--------------------------------------------------------------|
B|--------------------------------------------------------------|
G|------------------------7-6-----------------------------------|
D|------------------------7-7---------3-2-0---0-2---------------|
A|--3----5------0-0-0---------0-0-----------3------3------------|
E|--1----3------------------------------------------------------|

Well you gotta let go
e|--------------------------------------------------------------|
B|--------------------------------------------------------------|
G|----------7-6---------5-4-------------------------------------|
D|----------7-7---------5-5-------------------------------------|         X2
A|--0-0-0---------0-0-------------------------------------------|
E|--------------------------------------------------------------|

Well you gotta let go if you really wanna rock tonight
e|-------------------------------------------------------------|
B|-------------------------------------------------------------|
G|-------------------------------------------------------------|
D|------------2-----------12-12----7---------------------------|
A|--3----5----0-----------10-10----5---------------------------|
E|--1----3-----------------------------------------------------|

Verse:

Don't try to fight it
Just give me all you got
e|-----------------------------------------------------------|
B|-----------------------------------------------------------|
G|-----------------------------------------------------------|
D|-----------------------------------------------------------|
A|--3/5-5--5-----3/5-5--7--8-8-7-3---------------------------|
E|--1/3-3--3-----1/3-3--5--6-6-5-1---------------------------|

You can't control it when it gets this hot
e|-----------------------------------------------------------|
B|-----------------------------------------------------------|
G|-----------------------------------------------------------|
D|---------------------8-8-7-7-------------------------------|
A|--3/5-5--5---3/5-5---6-6-5-5-------------------------------|
E|--1/3-3--3---1/3-3-----------------------------------------|

It's like this jungle, bye-bye to modern man
e|-----------------------------------------------------------|
B|-----------------------------------------------------------|
G|-----------------------------------------------------------|
D|-----------------------------------------------------------|
A|--3/5-5--5-----3/5-5--7--8-8-7-3---------------------------|
E|--1/3-3--3-----1/3-3--5--6-6-5-1---------------------------|

We're talkin' rock you'll never understand
e|----------------------------------------------------------|
B|----------------------------------------------------------|
G|----------------------------------------------------------|
D|------------10--8-8-3-3-5-5-7-----------------------------|
A|--3/5-5--5---8--6-6-1-1-3-3-5-----------------------------|
E|--1/3-3--3------------------------------------------------|

Bridge:

It doesn't matter if the world's exploding
It doesn't matter where the night is going
If you wanna set the night on fire
e|--------------------------------------------------------|
B|--------------------------------------------------------|
G|--------------------------------------------------------|
D|--8---10------8----12--10-------5-----7-----------------|
A|--6----8------6----10---8-------3-----5-----------------|
E|--------------------------------------------------------|

Chorus:

Well you gotta let go
e|--------------------------------------------------------------|
B|--------------------------------------------------------------|
G|----------7-6---------5-4-------------------------------------|
D|----------7-7---------5-5-------------------------------------|         X2
A|--0-0-0---------0-0-------------------------------------------|
E|--------------------------------------------------------------|

Well you gotta let go if you really wanna rock tonight
e|-------------------------------------------------------------|
B|-------------------------------------------------------------|
G|------------------------7-6----------------------------------|
D|------------------------7-7---------3-2-0---0-2--------------|
A|--3----5------0-0-0---------0-0-----------3------3-----------|
E|--1----3-----------------------------------------------------|

Well you gotta let go
e|------------------------------------------------------------|
B|------------------------------------------------------------|
G|----------7-6---------5-4-----------------------------------|
D|----------7-7---------5-5-----------------------------------|         X2
A|--0-0-0---------0-0-----------------------------------------|
E|------------------------------------------------------------|

Well you gotta let go if you really wanna rock tonight
e|------------------------------------------------------------|
B|------------------------------------------------------------|
G|------------------------------------------------------------|
D|-----------------------2-2-2-4-4-4-5-5-5-7-7-9\-------------|
A|--3----5----3----5-5-5-0-0-0-2-2-2-3-3-3-5-5-7\-------------|
E|--1----3----1----3-3-3--------------------------------------|

Bridge:

I'm gettin' ready
Nobody's gonna stop me
Can't ya, feel the fire burnin'
Now's the time to start rockin'
e|------------------------------------------------------------|
B|------------------------------------------------------------|
G|------------------------------------------------------------|
D|--3------5-----3-----7-5-3-------5--------------8--7--------|
A|--1------3-----1-----5-3-1-------3--------------6--5--------|
E|------------------------------------------------------------|

Solo:

Lita shreds a solo here.
It is a Bb blues solo.
It goes like this:
e|--------------------------------6-8-6-9brb--------------|
B|--------7b-7b-7b-7b-7b~---------------------------------|
G|--8br---------------------------------------------------|
D|--------------------------------------------------------|
A|--------------------------------------------------------|
E|--------------------------------------------------------|

e|-t22p12h15-t22p12h15-t22p12h15-----|
B|-----------------------------------|
G|-----------------------------------|
D|-----------------------------------|
A|-----------------------------------|
E|-----------------------------------|

e|-t20p10h12-t20p10h12-t20p10h12-t20p10h12--------|
B|------------------------------------------------|
G|------------------------------------------------|
D|------------------------------------------------|
A|------------------------------------------------|
E|------------------------------------------------|

e|-t18p8h10-t18p8h10-t18p8h10-t18p8h10--------------|
B|-------------------------------------7b-----------|
G|--------------------------------------------------|
D|--------------------------------------------------|
A|--------------------------------------------------|
E|--------------------------------------------------|

e|-----------------------------------------------------------|
B|------6-7-9-6-7b---9-7-6---------------8-------------------|
G|-8b--------------------------8-6-4~----7b------------------|
D|-----------------------------------------------------------|
A|-----------------------------------------------------------|
E|-----------------------------------------------------------|

e|--18h21p18---18h21p18---18h21p18---18h21p18-----|
B|-19--------19---------19---------19-------------|
G|------------------------------------------------|
D|------------------------------------------------|
A|------------------------------------------------|
E|------------------------------------------------|

e|-----18h21p18-21p18-21b---------------|
B|-19-----------------------------------|
G|--------------------------------------|
D|--------------------------------------|
A|--------------------------------------|
E|--------------------------------------|

Bridge:

So if you want to be the main attraction
All you need's a little chain reaction
You and I can set the night on fire...
e|-------------------------------------------------------|
B|-------------------------------------------------------|
G|-------------------------------------------------------|
D|--8---10------8----12--10-------5-----7----------------|
A|--6----8------6----10---8-------3-----5----------------|
E|-------------------------------------------------------|

Chorus:

Well you gotta let go
e|--------------------------------------------|
B|--------------------------------------------|
G|----------7-6---------5-4-------------------|
D|----------7-7---------5-5-------------------|         X2
A|--0-0-0---------0-0-------------------------|
E|--------------------------------------------|

Well you gotta let go if you really wanna rock tonight
e|-------------------------------------------------------|
B|-------------------------------------------------------|
G|------------------------7-6----------------------------|
D|------------------------7-7---------3-2-0---0-2--------|
A|--3----5------0-0-0---------0-0-----------3------3-----|
E|--1----3-----------------------------------------------|

Well you gotta let go
e|---------------------------------------------|
B|---------------------------------------------|
G|----------7-6---------5-4--------------------|
D|----------7-7---------5-5--------------------|         X2
A|--0-0-0---------0-0--------------------------|
E|---------------------------------------------|

Well you gotta let go if you really wanna rock tonight
e|---------------------------------------20b-20b-20b--17-----|
B|-----------------------------------------------------------|
G|--------------------------7-6------------------------------|
D|--------------------------7-7------------------------------|
A|--3-------5------0-0-0--------0-0--------------------------|
E|--1-------3------------------------------------------------|

Outro Solo:

Lita improvs this with the 19 Box when she does it live
And it fades out with it. You can just improv it too. Use
Lots of bending of the 20th fret on the B string and end
On the 19th fret on the G string, then a D5 Power chord.

ENJOY LITA!

| /  slide up
| \  slide down
| h  hammer-on
| p  pull-off
| ~  vibrato
| +  harmonic
| x  Mute note
====================================================

            
            
Suggest correction
Creating personal tab
Creating personal tab
You can edit any tab online and save it as your Personal.

You can edit, replace or remove any tab part or add personal notes – all changes will be seen only by you.

Personal tabs can be accessed anytime from any device, even offline.
Learn more »
Give kudos to tab author, rate the tab!
1 2 3 4 5
comments
print report bad tab
guest
You may want to rate the tab now too:
select rating
Wanna post a correction for this tab? Suggest correction