Oops, an error
Loading. Please wait.

Kiss Me Deadly bass

version 1
version 1

Whole song

Interactive

5,216 views 3 this week
1 commentread comment
1 2 3 4 5
x 4
add to favorites
×
Save as Personal and add changes to this tab that will be seen only by you. Learn more ›
×
You can save this tab as Personal to edit and correct it or add notes. All changes will be seen only by you. Learn more »
launch autoscroll
font size
0
reset
guitar tuner
backing track
0:00
0:00
edit
Autoscroll
slow
fast
+/-
esc
set tempo
stop
Author
Difficulty
Lita Ford - Kiss Me Deadly

Intro
I went to a party...

Late for my job...
|------------|
|------------|
|--3---------| x2
|----1-3-----|

I Went to a party....
|------------------------------------|
|------------------------------------|
|--3-3-3-3-3-3-3-3-------------------| x2
|-------------------1-1-1-1-1-1-1-1--|

...but i know what i like
|-------------------------------------------------------------------|
|-------------------------------------------------------------------|
|--3-3-3-3-3-3-3-3--------------------------------------------------| x4
|------------------0-0-0-0-0-0-0-0-1-1-1-1-1-1-1-1-3-3-3-3-3-3-3-3--|

Kiss Me Once...
|-----------------------------------|
|-----------------------------------|
|--3-3-3-3-3-3-3-3------------------| x2
|------------------1-1-1-1-3-3-3-3--|

|-------------------------------------------------------------------|
|-------------------------------------------------------------------|
|--3-3-3-3-3-3-3-3--------------------------------------------------| x2
|------------------0-0-0-0-0-0-0-0-1-1-1-1-1-1-1-1-3-3-3-3-3-3-3-3--|

Had a few beers....
|------------------------------------|
|------------------------------------|
|--3-3-3-3-3-3-3-3-------------------| x2
|-------------------1-1-1-1-1-1-1-1--|

...but i know what i like
|-------------------------------------------------------------------|
|-------------------------------------------------------------------|
|--3-3-3-3-3-3-3-3--------------------------------------------------| x4
|------------------0-0-0-0-0-0-0-0-1-1-1-1-1-1-1-1-3-3-3-3-3-3-3-3--|

Kiss Me Once...
|-----------------------------------|
|-----------------------------------|
|--3-3-3-3-3-3-3-3------------------| x2
|------------------1-1-1-1-3-3-3-3--|

|-------------------------------------------------------------------|
|-------------------------------------------------------------------|
|--3-3-3-3-3-3-3-3--------------------------------------------------| x2
|------------------0-0-0-0-0-0-0-0-1-1-1-1-1-1-1-1-3-3-3-3-3-3-3-3--|

keyboard solo thing?
|---------------------------------|
|---------------------------------|
|---------------------------------|
|-33-33-33-33--33-33-33-3333333---|

Kiss Me Once...
|-----------------------------------|
|-----------------------------------|
|--3-3-3-3-3-3-3-3------------------| x2
|------------------1-1-1-1-3-3-3-3--|

|-------------------------------------------------------------------|
|-------------------------------------------------------------------|
|--3-3-3-3-3-3-3-3--------------------------------------------------| x2
|------------------0-0-0-0-0-0-0-0-1-1-1-1-1-1-1-1-3-3-3-3-3-3-3-3--|

Solo/Outro
|-------------------------------------------------------------------|
|-------------------------------------------------------------------|
|--3-3-3-3-3-3-3-3--------------------------------------------------| x4
|------------------0-0-0-0-0-0-0-0-1-1-1-1-1-1-1-1-3-3-3-3-3-3-3-3--|
Suggest correction
Creating personal tab
Creating personal tab
You can edit any tab online and save it as your Personal.

You can edit, replace or remove any tab part or add personal notes – all changes will be seen only by you.

Personal tabs can be accessed anytime from any device, even offline.
Learn more »
comments
print report bad tab
1 comment total.
+1 reply
lopudunum 10 May 21, 2011 01:10 PM

First Tab to be as follows:

Late for my job...
|------------|
|------------|
|--3---------| x2
|----0-1-----|

guest
You may want to rate the tab now too:
select rating
Wanna post a correction for this tab? Suggest correction