Oops, an error
Loading. Please wait.

Kiss Me Deadly bass

version 2
version 2

Whole song

Interactive

706 views 6 this week
1 commentread comment
1 2 3 4 5
1 last vote to show rating
add to favorites
×
Save as Personal and add changes to this tab that will be seen only by you. Learn more ›
×
You can save this tab as Personal to edit and correct it or add notes. All changes will be seen only by you. Learn more »
launch autoscroll
font size
0
reset
guitar tuner
backing track
0:00
0:00
edit
Autoscroll
slow
fast
+/-
esc
set tempo
stop
Author
Difficulty
KISS ME DEADLY
Standard Tuning
Bass enters at 0:23

  Late for my job...
G|-----------|-----------|
D|-----------|-----------|
A|-3---------|-3---------| 
E|-----0---1-|-----0---1-|

    I Went to a party....
G|------------------------------------|
D|------------------------------------|
A|--3-3-3-3-3-3-3-3-------------------| x2
E|-------------------1-1-1-1-1-1-1-1--|

  But I know what I like...
G|-------------------------------------------------------------------|
D|-------------------------------------------------------------------|
A|--3-3-3-3-3-3-3-3--------------------------------------------------| x4
E|------------------0-0-0-0-0-0-0-0-1-1-1-1-1-1-1-1-3-3-3-3-3-3-3-3--|

    Kiss Me Once...
G|-----------------------------------|
D|------------------3-3-3-3-5-5-5-5--|
A|--3-3-3-3-3-3-3-3------------------| x2
E|-----------------------------------|

G|-------------------------------------------------------------------|
D|-------------------------------------------------------------------|
A|--3-3-3-3-3-3-3-3\7-7-7-7-7-7-7-7----------------------------------| 
E|----------------------------------1-1-1-1-1-1-1-1-3-3-3-3-3-3-3-3--|

  Had a few beers....
G|------------------------------------------------------------------|
D|------------------------------------------------------------------|
A|--3-3-3-3-3-3-3-3-3-3-3-3-3-3-3-3---------------------------------| x4
E|----------------------------------1-1-1-1-1-1-1-1-1-1-1-1-1-1-1-1-|

  But I know what I like...
G|-------------------------------------------------------------------|
D|-------------------------------------------------------------------|
A|--3-3-3-3-3-3-3-3--------------------------------------------------| x4
E|------------------0-0-0-0-0-0-0-0-1-1-1-1-1-1-1-1-3-3-3-3-3-3-3-3--|

  Kiss Me Once...
G|-----------------------------------|
D|------------------3-3-3-3-5-5-5-5--|
A|--3-3-3-3-3-3-3-3------------------| x2
E|-----------------------------------|

G|-------------------------------------------------------------------|
D|-------------------------------------------------------------------|
A|--3-3-3-3-3-3-3-3\7-7-7-7-7-7-7-7----------------------------------| 
E|----------------------------------1-1-1-1-1-1-1-1-3-3-3-3-3-3-3-3--|

  Kiss Me Once...
G|-----------------------------------|
D|------------------3-3-3-3-5-5-5-5--|
A|--3-3-3-3-3-3-3-3------------------| x2
E|-----------------------------------|

G|----------------------------------------------------------------------|
D|----------------------------------------------------------------------|
A|--3-3-3-3-3-3-3-3\7-7-7-7-7-7-7-7----------------------------------3*-| 
E|----------------------------------1-1-1-1-1-1-1-1-3-3-3-3-3-3-3-3-----|

Keyboard Solo/Interlude
G|-R----|---------------------------------------------------|
D|--E---|---------------------------------------------------|
A|---S--|-33----------33----------33----------33------------|
E|----T-|-------11----------11----------11----------1--111\-|

  Kiss Me Once...
G|-----------------------------------|
D|------------------3-3-3-3-5-5-5-5--|
A|--3-3-3-3-3-3-3-3------------------| x2
E|-----------------------------------|
  
G|-------------------------------------------------------------------|
D|-------------------------------------------------------------------|
A|--3-3-3-3-3-3-3-3\7-7-7-7-7-7-7-7----------------------------------| 
E|----------------------------------1-1-1-1-1-1-1-1-3-3-3-3-3-3-3-3--|

  Kiss Me Once...
G|-----------------------------------|
D|------------------3-3-3-3-5-5-5-5--|
A|--3-3-3-3-3-3-3-3------------------| x2
E|-----------------------------------|

G|---------------------------------------------------------------|
D|---------------------------------------------------------------|
A|--3-3-3-3-3-3-3-3\7-7-7-7-7-7-7-7-8-8-8-8-8-8-8-8-5-5-5-5-5-5--| 
E|---------------------------------------------------------------|

G|----------------------------------|
D|----------------------------------|
A|----------------------------------|
E|--1-1-1-1-1-1-1-1-3-3-3-3-3-3-3-3-|

  Repeat and Fade out
G|-------------------------------------------------------------------|
D|-------------------------------------------------------------------|
A|--3-3-3-3-3-3-3-3\7-7-7-7-7-7-7-7----------------------------------|
E|----------------------------------1-1-1-1-1-1-1-1-3-3-3-3-3-3-3-3--|


            
            
Suggest correction
Creating personal tab
Creating personal tab
You can edit any tab online and save it as your Personal.

You can edit, replace or remove any tab part or add personal notes – all changes will be seen only by you.

Personal tabs can be accessed anytime from any device, even offline.
Learn more »
Give kudos to tab author, rate the tab!
1 2 3 4 5
comments
print report bad tab
1 comment total.
0 reply
52bass 10 Sep 27, 2017 05:54 PM

Nice job, looks good to me. I play some of the chorus parts up an octave, but it's good either way.

guest
You may want to rate the tab now too:
select rating
Wanna post a correction for this tab? Suggest correction