Oops, an error
Loading. Please wait.

Space Shuttle Tab

137 views 1 this week
no commentswrite comment
1 2 3 4 5
please rate
add to favorites
launch autoscroll
font size
0
reset
how to read this tab
guitar tuner
Autoscroll
slow
fast
+/-
esc
set tempo
stop
Help us to improve Ultimate-Guitar.com Take our survey!
×
Author
Difficulty
Tuning
intermediate
D# G# C# F# A# D#
-------------------------------------------------------------------------------
                             LITE BRITE - SPACE SHUTTLE
-------------------------------------------------------------------------------
Tabbed by: misterfarenheit (skyballer)
www.litebriteband.com


Tuning: Eb, Bb, Gb, Db, Ab, Eb

After feedback,

Intro:
RIFF 1
RIFF 2
RIFF 1
RIFF 2
RIFF 1
RIFF 2
RIFF 3

Verse1:
RIFF 1
RIFF 2
RIFF 1
RIFF 2
RIFF 1
RIFF 2
RIFF 3
(X2)

Verse2:
RIFF 4
RIFF 5
RIFF 4
RIFF 5
RIFF 4
RIFF 5
RIFF 4

SOLO

RIFF 1

Outro:
RIFF 1
RIFF 2
RIFF 1
RIFF 2
RIFF 1
RIFF 2
RIFF 1
RIFF 2
RIFF 1
RIFF 2
RIFF 3
RIFF 6


RIFF 1
e|---------------------------------------------------------------------------|
B|---------------------------------------------------------------------------|
G|-7/9--9-----9-------12\9--9-----9-------14\9--9-----9----------------------|
D|-7/9--9-----9-------12\9--9-----9-------14\9--9-----9----------------------|
A|-5/7--7-----7-------10\7--7-----7-------12\7--7-----7----------------------|
E|---------0-----0-0-----------0-----0-0-----------0-----0-0-----------------|


RIFF 2
e|---------------------------------------------------------------------------|
B|---------------------------------------------------------------------------|
G|---------------------------------------------------------------------------|
D|-5-5----7-7----------------------------------------------------------------|
A|-5-5----7-7----------------------------------------------------------------|
E|-3-3----5-5----------------------------------------------------------------|


RIFF 3
e|---------------------------------------------------------------------------|
B|---------------------------------------------------------------------------|
G|-7/9--9-----9-------12\9--9-----9-------14-9--7-9-------7------------------|
D|-7/9--9-----9-------12\9--9-----9-------14-9--7-9--5-7--7------------------|
A|-5/7--7-----7-------10\7--7-----7-------12-7--5-7--5-7--5------------------|
E|---------0-----0-0-----------0-----0-0-------------3-5----0----------------|


RIFF 4
e|---------------------------------------------------------------------------|
B|---------------------------------------------------------------------------|
G|---------14b^17----------14b^17--------------------------------------------|
D|---------------------------------------------------------------------------|
A|---------------------------------------------------------------------------|
E|-0-0-0-0---------0-0-0-0---------------------------------------------------|


RIFF 5
e|---------------------------------------------------------------------------|
B|---------------------------------------------------------------------------|
G|---------11b^14----------11b^14--------------------------------------------|
D|---------------------------------------------------------------------------|
A|---------------------------------------------------------------------------|
E|-0-0-0-0---------0-0-0-0---------------------------------------------------|


RIFF 6
e|---------------------------------------------------------------------------|
B|---------------------------------------------------------------------------|
G|-12-9--14-9--7-9-------7---------------------------------------------------|
D|-12-9--14-9--7-9--5-3--7-2-------------------------------------------------|
A|-10-7--12-7--5-7--5-3--5-2-------------------------------------------------|
E|------------------3-5----0-------------------------------------------------|

e|---------------------------------------------------------------------------|
B|---------------------------------------------------------------------------|
G|---------------------------------------------------------------------------|
D|-2--------2--------2--------2----------------------------------------------|
A|-2--------2--------2--------2----------------------------------------------|
E|-0--------0--------0--------0----------------------------------------------|


SOLO
e|-12-----12-----12-----12---------------------------------------------------|
B|-15b^17-15b^17-15b^17-15b^17-----------------------------------------------|
G|---------------------------------------------------------------------------|
D|---------------------------------------------------------------------------|
A|---------------------------------------------------------------------------|
E|---------------------------------------------------------------------------|

e|-12------------------------------------------------------------------------|
B|----15-12-15-12----12------------------------------------------------------|
G|----------------14----14-12-14-12----12------------------------------------|
D|----------------------------------14----14-12-14-12----12------------------|
A|----------------------------------------------------14----14-12-14-12-10---|
E|---------------------------------------------------------------------------|

e|---------------------------------------------------------------------------|
B|----------------------------14----14b^15\----------------------------------|
G|-------------------------12-14-12-14b^16\----------------------------------|
D|-------------------12-14---------------------------------------------------|
A|----------10-12-14---------------------------------------------------------|
E|-12-10-12------------------------------------------------------------------|

e|---------------------------------------------------------------------------|
B|-------------------------------15b^17-15b^17-------------------------------|
G|----------------------12-14-12---------------------------------------------|
D|----------------12-14------------------------------------------------------|
A|-------10-12-14------------------------------------------------------------|
E|-10-12---------------------------------------------------------------------|

e|-12-----12-----12-----12---------------------------------------------------|
B|-15b^17-15b^17-15b^17-15-14------------------------------------------------|
G|---------------------------------------------------------------------------|
D|---------------------------------------------------------------------------|
A|---------------------------------------------------------------------------|
E|---------------------------------------------------------------------------|

e|---------------------------------------------------------------------------|
B|-15-14----15-14----15-14----15-14----15-14----15-14------------------------|
G|-------12-------12-------12-------12-------12-------12---------------------|
D|---------------------------------------------------------------------------|
A|---------------------------------------------------------------------------|
E|---------------------------------------------------------------------------|

e|-12-----14-----15-----17-----19--------------------------------------------|
B|-15b^17-17b^19-20b^21-21b^22-22b^24----------------------------------------|
G|---------------------------------------------------------------------------|
D|---------------------------------------------------------------------------|
A|---------------------------------------------------------------------------|
E|---------------------------------------------------------------------------|

e|-22b^24~~~~~~~~~~~~~~~~~~~~~~~~~~~~~~~~~~~~~~~~~~--------------------------|
B|---------------------------------------------------------------------------|
G|---------------------------------------------------------------------------|
D|---------------------------------------------------------------------------|
A|---------------------------------------------------------------------------|
E|---------------------------------------------------------------------------|




************************************

| /   slide up
| \   slide down
| h   hammer-on
| p   pull-off
| ~   vibrato
| +   harmonic
| x   Mute note
| b   Bend
| pb  Pre-bend
| br  Bend release
| pbr Pre-bend release
| brb Bend release bend

************************************
Suggest correction
What's this?
You can suggest a correction to this tab. Community and Mods will review your correction and vote to approve or reject it.
comments
We did not receive enough feedback on this tab! Please rate:
print report bad tab
1 2 3 4 5
guest
You may want to rate the tab now too:
select rating
Please do not post tabs as comments. Select "correction" instead!