Oops, an error
Loading. Please wait.

Il Mistero Di Giulia chords

by Litfiba
49 views 3 this week
no commentswrite comment
1 2 3 4 5
3 more votes to show rating
add to favorites
×
Save as Personal and add changes to this tab that will be seen only by you. Learn more ›
×
You can save this tab as Personal to edit and correct it or add notes. All changes will be seen only by you. Learn more »
launch autoscroll
font size
0
reset
transpose
0
reset
simplify chords
display chords
guitar tuner
edit
Autoscroll
slow
fast
+/-
esc
set tempo
stop
Author
Difficulty
Strumming
There is no strumming pattern for this song yet. and get +5 IQ
Il Mistero di Giulia - Litfiba 

[Intro]

Am7:   x02010
Em7/4: xx2230
C:     x32010
Am:    x02210
Am/E:  002210
D:     xx0232
E:     022100
Am/G:  3x2210



Am:  577555
C:   x3555x
G:   355433
F:   133211
G/A: x00003
D:   x5777x

[|ntro] 
Am7  Em7 Am7  C  Am  Am/E 


[Verse]

 Am      C        D         E    Am7  C  Am7  Am/E  Am/G
Gioie e noie di anni di convivenza
 Am7      C     D          E    Am     F   G
per qualcuno sono una schiavitů
 Am           C      D           E   Am7  C  Am7  Am/E  Am/G
la coppia in crisi genera cattivi odori
 Am7   C       D            E     Am
e poi mostri fughe ed altri guai

Riff:

  Am
e|--------|-------------|
B|--------|-------------|
G|-2--0---|-5--0--2-0---|
D|--------|-----------2-|
A|--------|-------------|
E|--------|-------------|

  C
e|--------|-------------|
B|--------|-------------|
G|-2--0---|-5--0--2-0---|
D|--------|-----------2-|
A|--------|-------------|
E|--------|-------------|

  G
e|--------|-------------|
B|--------|-------------|
G|-2--0---|-5--0--2-0---|
D|--------|-----------2-|
A|--------|-------------|
E|--------|-------------|


[Verse]

 Am                G/A              Am
bella e dolce in cerca di un'esperienza
                   G/A            Am   F  G
vuole un lui sensibile ai suoi guai
 Am            G/A            Am
vive insoddisfatta dall'esistenza
                  G/A            Am   F  G
cerca storia ad alta intensitŕ            allez

[Riff]

 Am                G/A              Am
bella e dolce ha sete di conoscenza
               G/A            Am   F  G
vuole mascherarsi un pň con me
 Am          G/A          Am
la mia fantasia non ha coscienza
                   G/A         Am         F  G
e la tentazione striscia verso lei lei lei

 Am          G
sogna Adamo sogna d'Eva
 C                 F      G
ma il suo nome č Giulia
 Am        G         C                 F    G
da lontano cosě vera sembra giŕ sbocciare
 Am        G    F   Am                    G        F
ah ah perchč    la dolce tentazione di cambiare sapore
   Am      G  F    Am                       G          F
mi fa pazziŕ    e immagino la parte che č piů buona in te
   G            F    G      Am
la parte piů vitale che c'č in te in te in te

e|--------------|-----------------|
B|--------------|-----------------|
G|----------5---|-----------5-----|
D|-7--7-5-7-----|-7-7---5-7---7-5-|
A|--------------|-----------------|
E|--------------|-----------------|

e|--------------|-------------------|
B|--------------|-------------------|
G|----------5---|-----------5-------|
D|-7--7-5-7-----|-7-7---5-7---7-5-7-|
A|--------------|-------------------|
E|--------------|-------------------|
 In te
e|--------------|-1--------3------|
B|--------------|-1--------3------|
G|----------5---|-2--------4------|
D|-7-5-7--------|-3--------5------|
A|--------------|-----------------|
E|--------------|-----------------|
 In te

 Am               G/A        Am
belle sponde in cerca di conoscenza
         G/A               Am   F  G
in adorazione di sua maestŕ
 Am          G/A             Am
organi ghiotti e prensile ebbrezza
 Am          G/A          Am         F  G
la mia caravella approda qui qui qui

 Am        G          C               F       G
sono Adamo tu sei Eva sono il tuo serpente
 Am       G           C            F    G
da vicino mascherata ti potrň sfamare
   Am     G   F   Am                   G         F
ah ah perchč   la sana tentazione di cambiare sapore
     Am      G  F   Am                        G          F
mi fa  e ti fa     offrire quella parte piů nascosta in noi
    G          F                     Am
il tuo mistero č una richiesta in piů

[Solo] 
A D

  Am      G  F   Am                    G            F
ah ah tu sei    una professionista o casalinga annoiata
        Am     G  F   Am                       G           F
ci sei o ci fai      una contorsionista sull'anguilla infuocata
       G              F    G     Am
ma il tuo profumo io lo conosco giŕ
                        F      G     Am
nel tuo mistero c'č una sporca veritŕ


Riff 2:

e|----------|------------|-----------|
B|----------|------------|-----------|
G|----------|------------|-----------| x 4
D|----------|------------|-----------|
A|----------|------------|-----5---5-|
E|-5-5--7-5-|-8-5-7-5-5--|-7-5---7---|


 G          F           Riff 2
sono Adamo tu sei Eva sono il tuo serpente
 G          F           Riff 2
mi sembravi cosě vera troppo familiare e giŕ
 G           F          Riff 2
sogni Adamo sogni d'Eva e tu non sei Giulia
 G         F
da vicino niente č vero

Riff 3:

e|----------|--------------|-----------|
B|----------|--------------|-----------|
G|----------|--------------|-----------|
D|----------|--------------|-----------|
A|----------|--------------|-----5---5-|
E|-5-5--7-5-|-8--------5-5-|-7-5---7---|


 Riff 3

il mistero di Giulia che non č piů Giulia
                 Am
che pacco siamo noi


            
            
Suggest correction
Creating personal tab
Creating personal tab
You can edit any tab online and save it as your Personal.

You can edit, replace or remove any tab part or add personal notes – all changes will be seen only by you.

Personal tabs can be accessed anytime from any device, even offline.
Learn more »
Give kudos to tab author, rate the tab!
1 2 3 4 5
comments
print report bad tab
guest
You may want to rate the tab now too:
select rating
Wanna post a correction for this tab? Suggest correction