Oops, an error
Loading. Please wait.

L Impossibile Chords

799 views 141 this week
no commentswrite comment
1 2 3 4 5
3 more votes to show rating
add to favorites
launch autoscroll
font size
0
reset
transpose
0
reset
display chords
guitar tuner
Autoscroll
slow
fast
+/-
esc
set tempo
stop
Help us to improve Ultimate-Guitar.com Take our survey!
×
Author
Difficulty
novice
About this tab version
Tab di L' impossibile dal nuovo album Eutopia. Was this info helpful? Yes No
Tab L'impossibile - Litfiba 

[Intro]
Bm                  D
  L'impossibile non c'è
                   A                
L'impossibile non c'è
                  Bm
Perché tutto è possibile


[Riff 1]
e|------------------------|
B|------------------------|
G|-9b--7-9-9/11/9-7-------|
D|------------------9-7-9-|
A|------------------------|
E|------------------------|


[Verse]
Bm                         D
Lettera ai potenti della terra
A                              Bm
Padroni delle banche e della guerra
Bm                      D
Voi avete fascio e propaganda
A                             Bm
E noi vi massaggiamo con la fionda, ah!

Bm                         D
Lettera ai potenti della terra, ehi
A                             Bm                             
Io vi farei fumare un po' di erba


[Riff 2]
e|------------------------|
B|------------------------|
G|-7-6/7/6--------------4-|
D|---------9-7--2-4-2-0-4-|
A|----------------------2-|
E|------------------------|


[Verse]
Bm                             D
Queste mie parole sono artiglieria
 A                            Bm
Per voi sarò come Davide con Golia, Golia


[Chorus]
G      A    Bm                     G
L'impossibile è solo l'inizio per voi
A               Bm
Benzina della mente
G      A     Bm                      G
L'impossibile è solo una bestia che poi
A              Bm
Combatteremo sempre


[Bridge]
 Bm            D
e|-------2---------|----|-------2-0/2/0-------|----|
B|---------3-------|----|-----3-----------3---|----|
G|-----4-------4---|-x2-|---2-----------2---2-|-x2-|
D|---4-------4---4-|----|-0-------------------|----|
A|-2---------------|----|---------------------|----|
E|-----------------|----|---------------------|----|

A                Bm 
e|--------0----------|----|-------2---------|----|
B|----------0--------|----|---------3-------|----|
G|-----2---------2---|-x2-|-----4-------4---|-x2-|
D|---2---------2---2-|----|---4-------4---4-|----|
A|-0-----------------|----|-2---------------|----|
E|-------------------|----|-----------------|----|


[Verse 2]
Bm                 D
L'impossibile non c'è
                   A
L'impossibile non c'è
                  Bm
Perché tutto è possibile


[Riff 3]
e|-----------------------------|
B|-----------------------------|
G|-7-9-7-9brb--7---------------|
D|---------------9-7/9/7---7-9-|
A|-----------------------9-----|
E|-----------------------------|


[Verse 2]
Bm                         D
Tutti contro tutti per il pane, ehi
A                             Bm
Ma tutti insieme, tutti, è l'eutopia d'amare
Bm                              D
Io, re, compiaccio, pratico armonia
 A                              Bm
Con voi sarò come Davide con Golia, Golia, ehi


[Solo]
e|-----------------------|-----------------------|-----------------------|
B|-----------------------|-----------------------|-----------------------|
G|-7-6/7/6---6-7-9-7-6---|-7-6/7/6---6-7-9-7-6---|-7-6/7/6---6-7-9-7-6---|
D|---------9-----------9-|---------9-----------7-|---------9-----------9-|
A|-----------------------|-----------------------|-----------------------|
E|-----------------------|-----------------------|-----------------------|

e|---------------------------------|---------------------------------|
B|---------------------------------|---------------------------------|
G|---------------------------------|-11-9/11/9-9-7-6-7-9-7-----6-7-9-|
D|-7----7/9---7-9-9brb--7-9-9brb-9-|------------------------9--------|
A|---9-----------------------------|---------------------------------|
E|---------------------------------|---------------------------------|

e|-------------------------|---------------------|----------------------|
B|-------------------------|---------------------|----------------------|
G|-11-9/11/9-9-7-6-7-9-7---|---------------7-6---|----------------------|
D|-----------------------9-|-9-7/9/7---7-9-----9-|-7-9-9brb--7-9-9brb-9-|
A|-------------------------|---------9-----------|----------------------|
E|-------------------------|---------------------|----------------------|


[Chorus]
G      A    Bm                     G
L'impossibile è solo l'inizio per voi
 A              Bm
Benzina della mente
G     A     Bm                       G
L'impossibile è solo una bestia che poi
 A             Bm
Combatteremo sempre


[Solo]
e|-----------------------|-----------------------|-----------------------|
B|-----------------------|-----------------------|-----------------------|
G|-7-6/7/6---6-7-9-7-6---|-7-6/7/6---6-7-9-7-6---|-7-6/7/6---6-7-9-7-6---|
D|---------9-----------9-|---------9-----------7-|---------9-----------9-|
A|-----------------------|-----------------------|-----------------------|
E|-----------------------|-----------------------|-----------------------|

e|---------------------------------|---------------------------------|
B|---------------------------------|---------------------------------|
G|---------------------------------|-11-9/11/9-9-7-6-7-9-7-----6-7-9-|
D|-7----7/9---7-9-9brb--7-9-9brb-9-|------------------------9--------|
A|---9-----------------------------|---------------------------------|
E|---------------------------------|---------------------------------|

e|-------------------------|---------------------|----------------------|
B|-------------------------|---------------------|----------------------|
G|-11-9/11/9-9-7-6-7-9-7---|---------------7-6---|----------------------|
D|-----------------------9-|-9-7/9/7---7-9-----9-|-7-9-9brb--7-9-9brb-9-|
A|-------------------------|---------9-----------|----------------------|
E|-------------------------|---------------------|----------------------|

**********************************************************
| /      slide
| b      bend
| brb    bend release bend
Suggest correction
Give kudos to tab author, rate the tab!
1 2 3 4 5
comments
print report bad tab
guest
You may want to rate the tab now too:
select rating
Wanna post a correction for this tab? Suggest correction