Oops, an error
Loading. Please wait.

Maudit bass

by Litfiba
762 views 6 this week
no commentswrite comment
1 2 3 4 5
2 more votes to show rating
add to favorites
×
Save as Personal and add changes to this tab that will be seen only by you. Learn more ›
×
You can save this tab as Personal to edit and correct it or add notes. All changes will be seen only by you. Learn more »
launch autoscroll
font size
0
reset
guitar tuner
edit
Autoscroll
slow
fast
+/-
esc
set tempo
stop
Author
Difficulty
Title:                  Maudit  (STUDIO VERSION)
Author:                 Litfiba (bass: Roberto Terzani)
Tuning:                 standard
Tabbed by:              Diego Damo

This is the bass tab for the song "Maudit",performed by italian rock band "Litfiba".
Issued on the album "Terremoto" (1992),the bass line is very straight
and simple;so isn't hard work to learn.


----->>----->>----->>----->>----->>----->>----->>----->>----->>----->>----->>----->> 
PLEASE NOTE: notes on the BRIDGE TO FINALE and FINALE,are written without 
the dash mark. This is on purpose. If i write "5-33" or "55-3" i mean that "33" 
and "55" must be played quickly.

BRIDGE TO FINALE and FINALE are slightly improvised. That's the way i play it.
If u got better tab or suggestion,please mail me and i'll correct.
<<-----<<-----<<-----<<-----<<-----<<-----<<-----<<-----<<-----<<-----<<-----<<-----

Suggestions and complains: damo.diego_AT_gmail.com



INTRO:
(bass starts at 00:32 with a little up'n'down slide)
G|2/14\2---------------------------------------------------------------------|(fret 14)
D|---------------------------------------------------------------------------|
A|---------------------------------------------------------------------------|
E|---------------------------------------------------------------------------|


FIRST RIFF:   
(00:45 to 00:54)
G|---------------------------------------------------------------------------|
D|---------------------------------------------------------------------------|
A|------------------------3-5-------------------------5-3--------------------|
E|5-5-5-5-5-5-5-5-5-5-5-5-----5-5-5-5-5-5-5-5-5-5-5-5------------------------|


MAIN RIFF:    
(00:54 to 01:26)
G|---------------------------------------------------------------------------|
D|---------------------------------------------------------------------------|
A|--------------------------3------------------------------------------------|
E|5-5-5-5-5-5-5-5-5-5-5-5-3--------------------------------------------------|


BRIDGE:
(01:26 to 01:42)
G|---------------------------------------------------------------------------|
D|---------------------------------------------------------------------------|
A|----3-3--------------------------------------------------------------------|
E|5-5-----5-5-3-3------------------------------------------------------------|


CHORUS:
(01:43 to 01:59)
G|---------------------------------------------------------------------------|
D|---------------------------------------------------------------------------|
A|---------------------------------------------------------------------------|
E|5-5-5-5-5-5-5-5-5-5-5-5-5-5-5-5-5-5-5-5-5-5-5-5-5-well...u've got it-------|

AT 02:00 until 02:07 play the FIRST RIFF again.

From 02:07 to 02:35 play the MAIN RIFF again.

From 02:36 to 02:53 play the BRIDGE again.

From 02:53 to 03:09 play the CHORUS again.

From 03:10 to 03:33 play the MAIN RIFF again.

From 03:34 to 03:49 play the VARIATION.


VARIATION:
(03:34 to 03:49)
G|---------------------------------------------------------------------------|
D|---------------------------------------------------------------------------|
A|0-0-0-0-0-0-0-0-----------------3-3-3-3-3-3-3-3----------------------------|
E|----------------3-3-3-3-3-3-3-3-----------------1-1-1-1-3-3-3-3------------|


BRIDGE TO FINALE:
(03:50 to 04:22) (5-33 on "A" string and 5-33 on "E" string must be hitten very 
                fast,almost snapped).
G|---------------------------------------------------------------------------|
D|---------------------------------------------------------------------------|
A|------33-------------------------------------------------------------------|
E|5-5--5-----5-5--5-33-------------------------------------------------------|


FINALE:
(04:22 to END) (same tip as above: 555(E) to 33(A) must be played quickly,like
                555(E) to 33(E)
G|---------------------------------------------------------------------------|
D|---------------------------------------------------------------------------|
A|--------33-----------------------------------------------------------------|
E|5-5-5-55----5-5-5-55-33----------------------------------------------------|

            
            
Suggest correction
Creating personal tab
Creating personal tab
You can edit any tab online and save it as your Personal.

You can edit, replace or remove any tab part or add personal notes – all changes will be seen only by you.

Personal tabs can be accessed anytime from any device, even offline.
Learn more »
Give kudos to tab author, rate the tab!
1 2 3 4 5
comments
print report bad tab
guest
You may want to rate the tab now too:
select rating
Wanna post a correction for this tab? Suggest correction