Oops, an error
Loading. Please wait.

Sole Nero Tab

version 1
version 1

Whole song

Interactive

8,239 views 3 this week
no commentswrite comment
1 2 3 4 5
please rate
add to favorites
launch autoscroll
font size
0
reset
how to read this tab
guitar tuner
Autoscroll
slow
fast
+/-
esc
set tempo
stop
Help us to improve Ultimate-Guitar.com Take our survey!
×
Difficulty
novice
INTRO

E|--------------------|
B|-----3-------3------|
G|---4---4---4---4--4-|
D|-2-------2------2---| x6
A|--------------------|
E|--------------------|

RIFF

E|----------------------------|----------------------------|
B|----------------------------|----------------------------|
G|-----7--9-----7--9-----7-9--|-----7--9-----7--9-----7-9--|
D|-7-7------7-7------7-7------|-7-7------7-7------7-7------|
A|----------------------------|----------------------------|
E|----------------------------|----------------------------|
|
E|----------------------------|----------------------------|
B|----------------------------|----------------------------|
G|----------------------------|--------------7-------------|
D|-2--------------------------|-5------------7-------------|
A|-2--------------------------|-5------------5-------------|
E|-0--------------------------|-3--------------------------|


E|----------------------------|----------------------------|
B|----------------------------|----------------------------|
G|-----7--9-----7--9-----7-9--|-----7--9-----7--9-----7-9--|
D|-7-7------7-7------7-7------|-7-7------7-7------7-7------|
A|----------------------------|----------------------------|
E|----------------------------|----------------------------|
|
E|----------------------------|----------------------------|
B|----------------------------|----------------------------|
G|----------------------------|----------7-----------------|
D|-2------------2-------------|-5--------7-----------------|
A|-2------------2-------------|-5--------5-----------------|
E|-0------------0-------------|-3--------------------------|

STROFA

E|---------------------------------|---------------------------------|
B|---------------------------------|---------------------------------|
G|---------------------------------|-----------------7-7-7-77777-7-7-|
D|-2-2-2-22222-2-2-2-2-2-22222-2-2-|-5-5-5-55555-5-5-7-7-7-77777-7-7-| x2
A|-2-2-2-22222-2-2-2-2-2-22222-2-2-|-5-5-5-55555-5-5-5-5-5-55555-5-5-|
E|-0-0-0-00000-0-0-0-0-0-00000-0-0-|-3-3-3-33333-3-3-----------------|
________________________________palm  muted________________________________

E|----------------------------|----------------------------|
B|----------------------------|----------------------------|
G|-----7--9-----7--9-----7-9--|-----7--9-----7--9-----7-9--|
D|-7-7------7-7------7-7------|-7-7------7-7------7-7------|
A|----------------------------|----------------------------|
E|----------------------------|----------------------------|
|
E|----------------------------|----------------------------|
B|----------------------------|----------------------------|
G|----------------------------|-7-----------5--------------|
D|-2------------5-------------|-7-----------5--------------|
A|-2------------5-------------|-5-----------3--------------|
E|-0------------3-------------|----------------------------|

RITORNELLO

E|----------------------------|----------------------------|
B|----------------------------|----------------------------|
G|----------------------------|-7-----------5--------------|
D|-2------------5-------------|-7-----------5--------------| x3
A|-2------------5-------------|-5-----------3--------------|
E|-0------------3-------------|----------------------------|

SOLO

E|----------------------------|----------------------------|
B|----------------------------|----------------------------|
G|-11h12-11-9-11-7-9-7-9-7-9v-|9v-9v-9v-9v-9v--7-9-9b9r-7--|
D|----------------------------|----------------------------|
A|----------------------------|----------------------------|
E|----------------------------|----------------------------|

E|----------------------------|----------------------------|
B|----------------------------|-------------------- 12--12-|
G|-9b9r-7-9-7----7---9/12\11--|-9/11/12\--/12-14--14--14---|
D|-------------9--------------|----------------------------|
A|----------------------------|----------------------------|
E|----------------------------|----------------------------|



E|----------------------------|----------------------------|
B|----12-----12-----12--------|----------------------------|
G|-14----14-----14------14----|-9v--9v-9v--9v--12--12--12--|
D|----------------------------|----------------------------|
A|----------------------------|----------------------------|
E|----------------------------|----------------------------|

E|----------------------------|----------------------------|
B|-----------12-12-12-12------|----------------------------|
G|-14-14-14-------------------|----------------------------|
D|----------------------------|----------------------------|
A|----------------------------|----------------------------|
E|----------------------------|----------------------------|


RITONRELLO finale

E|----------------------------|----------------------------|
B|----------------------------|----------------------------|
G|----------------------------|-7-----------5--------------|
D|-2------------5-------------|-7-----------5--------------| x3
A|-2------------5-------------|-5-----------3--------------|
E|-0------------3-------------|----------------------------|

FINE


E|----------------------------|----------------------------|
B|----------------------------|----------------------------|
G|--9-------------------------|----------------------------|
D|--9-------------------------|----------------------------|
A|--7-------------------------|----------------------------|
E|----------------------------|----------------------------|
Suggest correction
Give kudos to tab author, rate the tab!
1 2 3 4 5
comments
print report bad tab
guest
You may want to rate the tab now too:
select rating
Please do not post tabs as comments. Select "correction" instead!