Oops, an error
Loading. Please wait.

Sparami bass

version 1
version 1

Whole song

Interactive

by Litfiba
127 views 3 this week
no commentswrite comment
1 2 3 4 5
3 more votes to show rating
add to favorites
×
Save as Personal and add changes to this tab that will be seen only by you. Learn more ›
×
You can save this tab as Personal to edit and correct it or add notes. All changes will be seen only by you. Learn more »
launch autoscroll
font size
0
reset
guitar tuner
edit
Autoscroll
slow
fast
+/-
esc
set tempo
stop
Author
Difficulty
Title:     Sparami    (STUDIO VERSION)
Author:    Litfiba      
Tuning:    standard
Tabbed by: Diego Damo (damo.diego_AT_gmail.com)

This is one of my favourite songs by italian rock band LITFIBA. This song is 
contained in the 1998 album "Mondi sommersi". This tab represent MY PERSONAL 
interpretation of the bass line,because i simply don't like too much the original
version,so don't complain if you don't like it. I simply tried to reinterpret 
the song. 

                           ***** PLEASE NOTE *****
The notes followed by the "s" are to be played quite sustained;anyway listen
well to the song to catch the correct timing.

enjoy :)

                    

MAIN RIFF:
(00:00 to 01:28) -> I managed to write THREE different ways to groove the MAIN
RIFF for this song. The first is the easier,maybe you can use to "learn" the
correct timing of the song or,if you prefer,keep it for the whole song.
The other two give,in my opinion,more life to the song,and prevent you from
falling asleep while you keep play. Choose the one that fit your personal 
taste. You can also,to give some variation,play alternatively two of them.
(Version 1)
G|---------------------------------------------------------------------------|
D|2s---2s--------------0s----------------------------------------------------|
A|---2----2s-3s---3s-3-------------------------------------------------------|
E|--------------3------------------------------------------------------------|
(version 2)
G|---------------------------------------------------------------------------|
D|2s---2s-5-4s------------0s-------------------------------------------------|
A|---2---------3s---3s-3-----------------------------------------------------|
E|----------------3----------------------------------------------------------|
(Version 3)
G|-------------------5s------------------------------------------------------|
D|2s----2s-5-4s----5-----0s--------------------------------------------------|
A|----2---------3s-----------------------------------------------------------|
E|---------------------------------------------------------------------------|



BRIDGE:
(01:28 to 01:36) -> To be played shorty before the CHORUS starts. 
G|-----------|-----------|-----------|-------------|-------------------------|
D|2-2-2-2----|2-2-2-2----|2-2-2-2----|-------------|-------------------------|
A|--------3-3|--------3-3|--------3-3|-------------|-------------------------|
E|-----------|-----------|-----------|3-3-3-3-3-3-3|-------------------------|




CHORUS:
(01:37 to 02:03)
G|---------------|--------------------|---------------|----------------------|
D|2-2-2-2-2-2-2-2|2-2-2-2-2-----------|---------------|----------------------|
A|---------------|----------5-5-5-3-3-|3-3-3-3-3-3-3-3|3-3-3-5-5-5-----------|
E|---------------|--------------------|---------------|----------------------|
                                  Play CHORUS 2 TIMES.then play
G|---------------|---------------|-------------------------------------------|
D|---------------|---------------|2------------------------------------------|
A|3-3-3-3-3-3-3-3|3-3-3-3-3-5-5-5|-------------------------------------------|
E|---------------|---------------|--0s---------------------------------------|



CODA OF CHORUS:
(02:10 to 02:16) -> This coda is a short arpeggio,that drives to MAIN RIFF 
again. I managed to write 2 different grooves for this arpeggio. Choose 
the one that sounds better to you. (The 2nd sound a bit better,to me)
G|-------------------------------|----|--------------------------------------|
D|2s--2-4-5s--4-4-0------------0s|-OR-|2s--2-4-5s-4-0---------5--------0s----|
A|------------------3s---3s--3---|----|--------------------3s---3s--3--------|
E|---------------------3---------|----|----------------3---------------------|

After this,the song goes back to the MAIN RIFF,only with a little variation:
Shortly before the 2nd CHORUS,instead of playing the BRIDGE,at 02:50 you have
to play:

G|-------------|-------------|-----------------------------------------------|
D|5-5-5-5-5-5-5|5-5-5-5-5-5-5|-----------------------------------------------|
A|-------------|-------------|-----------------------------------------------|
E|-------------|-------------|-----------------------------------------------|
Which is,obviously,the previous "G",in the higher octave.

After this,we have 4 CHORUS,then the last MAIN RIFF (03:43 to FINALE)

            
            
Suggest correction
Creating personal tab
Creating personal tab
You can edit any tab online and save it as your Personal.

You can edit, replace or remove any tab part or add personal notes – all changes will be seen only by you.

Personal tabs can be accessed anytime from any device, even offline.
Learn more »
Give kudos to tab author, rate the tab!
1 2 3 4 5
comments
print report bad tab
guest
You may want to rate the tab now too:
select rating
Wanna post a correction for this tab? Suggest correction