Oops, an error
Loading. Please wait.

Spirito album chords

by Litfiba
169 views 12 this week
no commentswrite comment
1 2 3 4 5
3 more votes to show rating
add to favorites
×
Save as Personal and add changes to this tab that will be seen only by you. Learn more ›
×
You can save this tab as Personal to edit and correct it or add notes. All changes will be seen only by you. Learn more »
launch autoscroll
font size
0
reset
transpose
0
reset
display chords
guitar tuner
edit
Autoscroll
slow
fast
+/-
esc
set tempo
stop
Author
Difficulty
Strumming
There is no strumming pattern for this song yet. and get +5 IQ
Text s notami k písni:

=====================================================================
                                                            
 SPIRITO - 1994                                            
=====================================================================
Hanno suonato:    Antonio Aiazzi          Tastiere
                  Candelo                 Percussioni
                  Daniele Bagni           Basso
                  Franco Caforio          Batteria e Marimba
                  Piero Pelů              Voce
                  Ghigo Renzulli          Chitarre, Banjo
                  Renato Freyggang        Zamponas, Quena, Quenacho
=====================================================================
ELENCO CANZONI:

      - LO SPETTACOLO
      - ANIMALE DI ZONA
      - SPIRITO
      - LA MUSICA FA
      - TAMMURIA
      - LACIO DROM (BUON VIAGGIO)
      - NO FRONTIERE
      - DIAVOLO ILLUSO
      - TELEPHON BLUES
      - ORA D'ARIA
      - SUONA FRATELLO
=====================================================================

        A=La            Legenda per le tablature:
        B=Si            / o \ = slide (glissato)
        C=Do            h     = hammer-on
        D=Re            p     = pull-off
        E=Mi            b     = bend
        F=Fa            r     = rilasciare il bend
        G=Sol


~~~~~~~~~~~~~~~~~~~~~~~~~~~~~~~~~~~~~~~~~~~~~~~~~~~~~~~~~~~~~~~~~~~~~
LO SPETTACOLO
~~~~~~~~~~~~~~~~~~~~~~~~~~~~~~~~~~~~~~~~~~~~~~~~~~~~~~~~~~~~~~~~~~~~~

[[INTRO]]
 G D Em G D G


D        Am7
Sono qui come un orso in una gabbia
   Am7
creatura assolutamente viva
            Am7
giro in tondo e vi voglio dare il meglio
Am7
dritto al cuore nasce un fuoco nei motori
               Em G
allora si parte


D        Am7
E' notte e si accendono le luci

rotto il ghiaccio ballerino coi fantasmi
  G
ah


D      Am            G            D
Lo spettacolo deve ancora cominciare
       Am             G           D
lo spettacolo deve ancora cominciare
    Em                     G D
per teste piene teste vuote
Em                     G
rimbalziamo con le note
D
dello spettacolo

   Am7
Siamo qui distruggiamo la violenza
Am7
siamo il vento sui confini e le distanze
Am7
e c'č rispetto quando ognuno puň godere
Am7                          Em   G
questa notte e siamo giocolieri  in piazza

D      Am            G            D
Lo spettacolo deve ancora cominciare
       Am             G           D
lo spettacolo deve ancora cominciare
    Em                     G D
per teste piene teste perse
Em                     G
rispettiamo le differenze
D
nello spettacolo

D  Em                           D               G
Scusate la confidenza, ma un problema di coscienza
                            D             G
piacere a tanta gente č una gabbia seducente

D      Am            G            D
Lo spettacolo deve ancora cominciare
D      Am            G            D
lo spettacolo non ha scuse da inventare
D      Am            G            D
lo spettacolo si fa solo un po' aspettare
D      Am            G            D
lo spettacolo deve ancora cominciar


Am C        D
            lo spettacolo   (5X)
Am
e s'ha da fa'



ANIMALE DI ZONA


[[INTRO]]
 Am7 Em Am7 Em C Em Em7 Am7 Em7 Am7


Em                        Am7
Al confine coi miei pensieri
Em                         Am7
scivolo sull'erba dei campi
Em                 Am7
onde su onde i desideri
Em
e sogno di averti al mio fianco
Am7               Em
ma segno la mia zona
Am7                        Em
son tonnellate le cose non dette fra noi
C                    Em
e le carezze ai cuscini


Em                    Am7
Mi abbandono ai desideri
Em                           Am7
e scivola la mano sui fianchi
Em                        Am7
cerco amore coi soli pensieri
Em
e cado nei tuoi occhi salati
Am7
mi chiedi perchč
                    Em
io gioco con le parole
Am7                          Em
sai come va difendo la mia zona
Em7
Resto solo coi miei pensieri


C
Nuoto nell'erba
             Em                   E4
e passa il silenzio in mezzo a noi
C                          Em
son l'animale che gioca da solo col vento
B               Em
segno il mio confine
B               Em       C     G    D  Em
questo č il mio limite di animale di zona


[Instrumental]
 Am7 Em Am7 Em C Em B Em Am7 Em Am7 Em C Em


C                      Em                   E4
Tu preferisci un'altra illusione alla realtŕ
C                      Em
io uso parole come coriandoli di spine
B                  Em
questo č il mio confine
B        Em   C       G     D Em
un autolimite di animale di zona
C       G     D Em
di animale di zona





~~~~~~~~~~~~~~~~~~~~~~~~~~~~~~~~~~~~~~~~~~~~~~~~~~~~~~~~~~~~~~~~~~~~~
SPIRITO (Trascrizione: Alessandro 
~~~~~~~~~~~~~~~~~~~~~~~~~~~~~~~~~~~~~~~~~~~~~~~~~~~~~~~~~~~~~~~~~~~~~


  G                             G
|-----------------------------|-----------------------------|
|-----------------------------|-----------------------------|
|-5-4-0-5-4-0-5-4-0-----------|-5-4-0-5-4-0-5-4-0-5-4-0-4-5-|
|-----------------------------|-----------------------------|
|-----------------------------|-----------------------------|
|-----------------------------|-----------------------------|


  F                             F
|-----------------------------|-----------------------------|
|-----------------------------|-----------------------------|
|-7-------------------5-4-5-4-|-----------------------------|
|-----------------------------|-3---------------------------|
|-----------------------------|-----------------------------|
|-----------------------------|-----------------------------|



G
Quando mi sveglio cerco i miei sogni
F
Non li ritrovo piů
G
Non apro gli occhi per chiamarti indietro
F
E rivedere la mia fantasia


G
Spirito libero
F
Sto contento quando mi parli dentro
G
Libero spirito
F
Sto contento quando mi balli dentro


Il mondo e storto aspetta in coda
Appeso a un semaforo
Provo a smontarlo con un sorriso
E' il solo gioco che so il mondo e' un cannibale


Spirito libero
Sto contento quando mi parli dentro
Libero spirito
Sto contento quando mi parli dentro


G                       C        F
Sei la scintilla che scatena l'intensitŕ
G                      C           F
Fratello libero sei il genio della lampada
G                        C               F
Cambia la rabbia dal mio corpo quando ci sei
G                         C        F
E ogni problema e' un labirinto fantastico
G   C F G   C F G   C    F
                    Spirito


Il mondo e storto gioca col morto
E ruba la fantasia
Provo a smontarlo con un sorriso
E' il solo gioco che so il mondo e' un cannibale


Spirito libero
Sto contento quando mi balli dentro
Libero spirito
Sto contento quando mi parli dentro


Sei la scintilla ...




~~~~~~~~~~~~~~~~~~~~~~~~~~~~~~~~~~~~~~~~~~~~~~~~~~~~~~~~~~~~~~~~~~~~~
LA MUSICA FA (Trascrizione: Davide Pari 
~~~~~~~~~~~~~~~~~~~~~~~~~~~~~~~~~~~~~~~~~~~~~~~~~~~~~~~~~~~~~~~~~~~~~


[INTRO] 
 Em  Am Em  Am Em G   Am Em  Am Em G 

  Am           G            Am
A volte vorrei vivere nell'aria
                               G    Em
e rimanere sospeso senza piu' ostacoli
   Am                 G               Am
giocare coi mostri delle mie insicurezze
                                    G    Em
e trasformarli in canzoni come un miracolo
Am           G   Em
       Ah ah ah


   Am                 G                Am
Su tutta la terra che corre sotto i piedi
                            G       Em
come un mappamondo di pezzi fragili
      Am                G              Am
c'e' ognuno che cerca e cerca la sua idea
                                 G      Em

e insegue la verita' e il suo contrario.


[Instrumental]
[chitarra elettrica con distorsione]

  Am           C    G       Am       C
e|------------------------|-------------------|
B|------------------------|-------------------|
G|------------------------|-------------------|
D|--7-------5--7--5-4--0--|--2----------------|
A|------------------------|-------------------|
E|------------------------|-------------------|

 Am        C         G       Am          C
---------------------------|---------------------------|
---------------------------|---------------------------|
--2-4-5-7-9-----7--5-7--5--|--4--5--4--2-4--2--0-2--0--|
---------------------------|---------------------------|
---------------------------|---------------------------|
---------------------------|---------------------------|
Am
-------------------|
-------------------|
--2----------------|
-------------------|
-------------------|
-------------------|


   Am          C         G    Am     C  G
La musica fa sognare volare capire
   Am            C     G     Am     C  G
la musica da' la forza di reagire
   Am            C           G     Am   C  G
la musica fa viaggiare ma senza partire_ieie___
   Am           C            G      Am C  G
la musica fa capire cio' che vuoi capire


Am
Tutta la banda e' un detonatore
                              F        G
musica a randa con la testa e con il cuore
Am
e' mediterranea e corre a sangue caldo
                            F G
tutta la banda fa musica a randa


[Intermezzo 2]
[chitarra elettrica con distorsione]


e|-----------------------|-----------------------|
B|--5---------8--7-5-----|-----------------------|
G|--------------------7--|--9----7--5---------5--|
D|-----------------------|------------7----------|
A|-----------------------|-----------------------|
E|-----------------------|-----------------------|

--------------------------|----------------------|
--5--5--5-------------10--|----------------------|
----------7-5-9-----------|--9--7--5-------------|
--------------------------|-----------7----------|
--------------------------|----------------------|
--------------------------|----------------------|


Am                      G           Am
Il mondo e' a pezzi e i pezzi siamo noi
                         G    Em
in un rompicapo di gesti fragili
   Am                    G                      Am
cerchiamo la gioia ma la gioia e' dentro di noi
                                          G    C Em
perche' e' magica la verita' non e' il contrario

[qui ci sarebbe un bel riff di chitara sotto, ma non sono
riuscito a trascriverlo]


Am   C            G         Am
      la gioia e' dentro di noi


[Ripete Intermezzo 1]


   Am          C         G    Am     C  G
La musica fa sognare volare capire
   Am            C     G     Am     C  G
la musica da' la forza di reagire
   Am            C           G     Am   C  G
la musica fa viaggiare ma senza partire_ieie___
   Am           C            G      Am C  G
la musica fa capire cio' che vuoi capire


Am
Tutta la banda e' un detonatore
                              F        G
musica a randa con la testa e con il cuore
Am
e' mediterranea e corre a sangue caldo
                            F G
tutta la banda fa musica a randa


B                   F     C
Vitamina adrenalina ah ah ah
B                     F          C
sono il carburante di questa musica
B                        F     C
Vitamina giu' in cantina ah ah ah
B                                F            C
il mio viaggio e' un'indecenza e non finisce qua.


[Intermezzo 3]
[Elettrica distorta]
[questa trascrizione e' un po' meno accurata delle
precedenti ma non sono un grande chitarrista elettrico]

e|----------------------|-------------------------|
B|--5r------------------|-------------------------|
G|---------7\5----------|------5------------------|
D|---------------7r-----|--5-7---7-5----7--7------|
A|----------------------|-------------------------|
E|----------------------|-------------------------|

------------------------|----------------------------|
------------------------|----------------------------|
------------------------|----------------------------|
------------------------|----------------------------|
--0--3--4/5r----5r------|--0--3--4/5b7r~-------------|
------------------------|----------------------------|


   Am          C         G    Am     C  G
La musica fa sognare volare capire
   Am            C     G     Am     C  G
la musica da' la forza di reagire
   Am            C           G     Am   C  G
la musica fa viaggiare ma senza partire_ieie___
   Am           C            G      Am C  G
la musica fa capire cio' che vuoi capire
   Am           C         G
La musica fa la musica da'
   Am           C         G
La musica fa la musica da'
   Am           C         G
La musica fa la musica da'
   Am           C         G
La musica fa la musica da'


| Am C G | Am C G | Am C G | Am C G |


Am                  C            G     Am  C G
   Il mondo e' a pezzi e i pezzi siamo noi
Am                  C            G     Am  C G
   Il mondo e' a pezzi e i pezzi siamo noi
Am                C            G     Am  C G
   Col cuore a pezzi e i pezzi siamo noi
Am                  C            G     Am  C G
   Il mondo e' a pezzi e i pezzi siamo noi


[sfumando ad libitum]


   Am           C         G
La musica fa la musica da'
   Am           C         G
La musica fa la musica da'
   Am           C         G
La musica fa la musica da'
   Am           C         G
La musica fa la musica da'




~~~~~~~~~~~~~~~~~~~~~~~~~~~~~~~~~~~~~~~~~~~~~~~~~~~~~~~~~~~~~~~~~~~~~
TAMMURIA
~~~~~~~~~~~~~~~~~~~~~~~~~~~~~~~~~~~~~~~~~~~~~~~~~~~~~~~~~~~~~~~~~~~~~


G C  Em                 C7
  Tammůria piů forte stanotte
              Em           G C
non voglio pensare a niente
   Em                  C7
tammůria sui tetti sui muri
               Em
e le strade le strade le strade


Em            G C       Em      G C
Tammůria můria       tammůria mů


    Em
Che amara bellezza c'č
       C7           Em    G C
nell'incertezza del domani
  Em               C7
e la tentazione puttana
             Em
ci fa tutti uguali


[INSTRUMENTAL]
 C G Am Em


   C    G
Il sole nasce su di noi
  D
č caldo come noi
  Em
e scalda se lo vuoi
   C    G
il sole nasce su di noi
   D
rispettalo se vuoi


  Em           G C Em
Tammůria můria     la luce che da


Se un dittatore dal nuovo balcone
spaccia in tv la gioia
tu scuoti la noia e gli sguardi
di chi non lo capisce


Se oggi č come ieri
ammazzi ogni futuro
tammůria můria mů


Il sole nasce su di noi
amico se lo vuoi
č uguale per tutti
un sole nasce tra di noi
e scalda se lo vuoi
brucia se lo vuoi
il sole
il sole uguale a tutti noi


[INSTRUMENTAL]
 Em G C Em


   G    C
Tammůria


[INSTRUMENTAL]
 Em C7 Em G C Em C7 Em G C


Orari vecchie coincidenze
sbagliate saltate perdute
risposte sui muri a nessuna domanda
speranze nellě'aria senza risposte


Il sole nasce su di noi
amico se lo vuoi
č uguale per tutti
un sole nasce tra di noi
e scalda se lo vuoi
rispettalo se puoi
il sole
il sole nasce tra di noi




~~~~~~~~~~~~~~~~~~~~~~~~~~~~~~~~~~~~~~~~~~~~~~~~~~~~~~~~~~~~~~~~~~~~~
LACIO DROM (BUON VIAGGIO)
~~~~~~~~~~~~~~~~~~~~~~~~~~~~~~~~~~~~~~~~~~~~~~~~~~~~~~~~~~~~~~~~~~~~~


Bm                 G
La strada dove finisce
Bm             G
senza piedi userň le mani mani
Bm                  G
fino alla pista che non esiste
Bm                G                  Bm G F#7 Bm F#
lŕ cavalcherň sui venti e gli uragani


A Bm            G
Regina di periferia
Bm                            G
con gli  occhi della rabbia e dell'arcobaleno
Bm                   G
che non conoscono la destinazione
Bm                   G
e che mi dicono buon viaggio lacio drom


Bm G     F#7     Bm G      F#7
uh ti porterň... uh ti prenderň


Bm                       G
La strada che non ha strisce
Bm                  G
sarŕ la rotta sotto questa luna
Bm                    G
coi suoi problemi coi suoi compromessi
Bm                       G
e ogni volta non ritrovi mai la stessa


Bm G       F#7   Bm G    F#7   Bm G
uh ti porterň... uh zingara... uh ti
     F#7
porterň


A  Bm                     A
Ti porterň nei posti dove c'č del buon vino
  Bm          A
e festa festa fino a mattina
  Bm                        A
sirena con due occhi grandi come la fame
Bm                A
balla balla e poi lasciami qui
Bm          A     Bm  F#7 A
uh ih uh ih lacio drom


La strada che non finisce mai
senza piedi userň le mie mani
e tutta l'arte di un equilibrista
per trovare un'altro mondo
per noi due... noi due...


E faccia faccia con la porta della paura
senza lacci senza cintura
sirena con due occhi grandi come la fame
guarda guarda io sono quaggiů


Ti porterň nei posti dove c'č del buon vino
e festa festa fino a mattina
sirena con due occhi grandi come la fame
balla balla e poi lasciami qui


uh ih uh ih... uh lacio drom...



F# A Bm          F# A
   č festa festa,
    Bm            F# A
fai festa festa...
    Bm                     F# A
fai festa festa festa festa
Bm             F# A
nella tua testa
uh ih uh uh... uh lacio drom




~~~~~~~~~~~~~~~~~~~~~~~~~~~~~~~~~~~~~~~~~~~~~~~~~~~~~~~~~~~~~~~~~~~~~
NO FRONTIERE (Intro: Davide Pari 
~~~~~~~~~~~~~~~~~~~~~~~~~~~~~~~~~~~~~~~~~~~~~~~~~~~~~~~~~~~~~~~~~~~~~


[INTRO]

e|-------------------------------------------------|
B|--------0-------0------------2----------0--------|
G|-------------------------------------------------|
D|-----4-----0----------2---------2--0-------0-----|
A|--2----------------2--------------------------0--|
E|-------------------------------------------------|



-------------------------|------------------------||
--------0-------0--------|----2----------0--------||
-------------------------|------------------------||
-----4-----0----------2--|-------2--0-------0-----||
--2----------------2-----|---------------------0--||
-------------------------|------------------------||


D              E               Bm  A
Superato l'orizzonte dello specchio
D               E                 Bm  E
spedizione dirottata sul non ritorno
D                E                 Bm  A
nel vuoto apparente fra cielo e terra
D          E
verso le mani fonti della vi


     Bm                  A                   E

E|--7----------------|--5----------------|--0----------------|
B|-------------------|-------------------|-------------------|
G|-------------------|-------------------|-------------------|
D|-------------------|-------------------|-------------------|
A|-------------------|-------------------|-------------------|
E|-------------------|-------------------|-------------------|
     ta

                     Bm                  A
------------------|--7----------------|--5----------------|
------------------|-------------------|-------------------|
------------------|-------------------|-------------------|
------------------|-------------------|-------------------|
------------------|-------------------|-------------------|
------------------|-------------------|-------------------|


  E
--7--------7--8----10--|------------------||
-----------------------|------------------||
-----------------------|------------------||
-----------------------|------------------||
-----------------------|------------------||
-----------------------|------------------||


D                    E             Bm  E
Tra le stelle dell'orsa e del delfino
D               E                   Bm
c'č gente che vive amando ciň che ha
                              D
e non odiando ciň che non avrŕ
               E                  D
io scopro galassie col tuo profumo
             E               D            A
milioni di soli che danno fiori riti di pace e
E      Bm                E         Bm
No frontiere uh oh oh... no frontiere


   E                    Bm                      A
E|----------4~---6~---|--7~-------7~-7~-6~-5~-|----------0~---5~---|
B|--------------------|-----------------------|--------------------|
G|--------------------|-----------------------|--------------------|
D|--------------------|-----------------------|--------------------|
A|--------------------|-----------------------|--------------------|
E|--------------------|-----------------------|--------------------|
             No Front - iere      uh oh oh...             No front -

  E                                        Bm
--4~---------------|----------4~---6~---|--7~-------7~-7~-6~-5~-|
-------------------|--------------------|-----------------------|
-------------------|--------------------|-----------------------|
-------------------|--------------------|-----------------------|
-------------------|--------------------|-----------------------|
-------------------|--------------------|-----------------------|
tiere

  A                    E
----------0~---5~---|--4~---------5~---7~-|--7~---------------|
--------------------|---------------------|-------------------|
--------------------|---------------------|-------------------|
--------------------|---------------------|-------------------|
--------------------|---------------------|-------------------|
--------------------|---------------------|-------------------|


  D                     E
---------------------|----------------------|
---------------------|----------------------|
------------------1--|----------2--1--------|
--3----------3----2--|----------------3--2--|
--5----------5-------|----------------------|
---------------------|----------------------|

  Bm
-----5--7--5--7--5--7--5--|
-----5--6--5--6--5--6--5--|
--------------------------|
--------------------------|
--2-----------------------|
--------------------------|


                            D                     E
--7--5--7--5--7--5--7----|---------------------|--------------------|
--6--5--6--5--6--5--6----|---------------------|--------------------|
-------------------------|------------------1--|--------------------|
-------------------------|--3------------3--2--|--------------------|
-------------------------|--5------------5-----|------------0----0--|
-------------------------|---------------------|--------------------|


  Bm
----5--7--5--7--5--7--5--|--7--5--7--5--7--5--7----||
----5--6--5--6--5--6--5--|--6--5--6--5--6--5--6----||
-------------------------|-------------------------||
-------------------------|-------------------------||
-------------------------|-------------------------||
-------------------------|-------------------------||

D              E               Bm  A
Stessi elementi in forme differenti
D               E                 Bm  E
piů lontano dell'orsa e del delfino
D                E                 Bm  A
ho visto pianeti dove non si scoppia
D                E                   Bm
molte notti dentro il cielo a far l'amore
               E                  D
io scopro galassie col tuo profilo
             E               D            A
milioni di soli che danno fiori riti di pace e
E      Bm                E         Bm
No frontiere uh oh oh... no frontiere
E      Bm                E         Bm
No frontiere uh oh oh... no frontiere


             E               D            A
milioni di soli che danno fiori riti di pace e
E      Bm                E         Bm
No frontiere uh oh oh... no frontiere
E      Bm                E         Bm
No frontiere uh oh oh... no frontiere.


[DIAVOLO ILLUSO]

Am            G       F         G
Voglio il mio ruolo e voglio giocare
Am        G      F
questa partita bestiale
G   Am         G       F          G
son l'asso del fallo e del non perdono
   Am       G        F            G Am G F
ma poi mi rivedo per quello che sono


G  Am         G      F      G       Am  G F
Un diavolo illuso di possedere il male
G  Am         G     F     G          Am   G F G
io gioco confuso in mondo visione parziale


Am       C   G         F      Am
Ehi sono qui voglio peccare anch'io
Am   C    G      F    Am
tu vedrai come lavoro io


[INSTRUMENTAL]
Am C Am C G


Cattivi bastardi scorretti e venduti
gli arbitri e i giocatori
non so piů chi sono i miei avversari
cosě il presidente mi butta fuori


Diavolo illuso d'insegnare il peccato
mi trovo in panchina nel ruolo del disoccupato


Ehi sono qui voglio peccare anch'io
tu vedrai come lavoro io


[INSTRUMENTAL]
Am C Am C F Am F Am F G Am G F G


Diavolo illuso di possedere il male
io resto in panchina disoccupato mentale


Ehi sono qui voglio peccare anch'io
tu vedrai come lavoro io

Ehi sono qui voglio peccare anch'io
voglio peccare voglio giocare
e far del male anch'io
giocare peccare
far del male






~~~~~~~~~~~~~~~~~~~~~~~~~~~~~~~~~~~~~~~~~~~~~~~~~~~~~~~~~~~~~~~~~~~~~
TELEPHONE BLUES
~~~~~~~~~~~~~~~~~~~~~~~~~~~~~~~~~~~~~~~~~~~~~~~~~~~~~~~~~~~~~~~~~~~~~


E||-------------------------|------------------------||
B||-------------------------|------------------------||
G||-------------------------|------------------------||
D||-------------------------|------------------------||
A||----------0--1--2--0-----|--0----0----------------||
E||----0--3--------------3--|----------0--3--3----0--||


Oggi non rispondo
non c'č piů ritorno





~~~~~~~~~~~~~~~~~~~~~~~~~~~~~~~~~~~~~~~~~~~~~~~~~~~~~~~~~~~~~~~~~~~~~
ORA D'ARIA
~~~~~~~~~~~~~~~~~~~~~~~~~~~~~~~~~~~~~~~~~~~~~~~~~~~~~~~~~~~~~~~~~~~~~


Tira aria un po' pesante aria riciclata
vien da destra aria sinistra giŕ condizionata


[INSTRUMENTAL]
 A E F#m E F#m E F#m E


F#m          E               F#m         E
Sono l'aquilone in cielo e cerco di fermare
   F#m
la guerra in aria
    E              F#m        E
guerra in terra la pace militare


A                E        F#m
Sento il mio respiro dove soffia il vento
A               E         F#m
sarň una cosa sola con il mondo intorno
E               F#m  E                    F#m
voglio un'ora d'aria un'ora d'aria al giorno
E              F#m
evadere dal fondo


[INSTRUMENTAL]
 E F#m E F#m E


E sapere che mi manca č un po' come averla
come per tutto quel che ho perso
mi manca perchč č perso


Cerco il mio respiro dove soffia il vento
sarň una cosa sola con il mondo intorno
voglio un'ora d'aria un'ora d'aria al giorno
evadere dal fondo


Strum A E D F#m E D E F#m D F#m E D F#m E F#m


Aria sporca aria riciclata
compra l'aria giŕ confezionata
tu compra l'aria per tutta la tua giornata
ecco l'aria te la sei meritata


F#m         E           F#m
Ecco l'aria ecco l'aria ecco l'aria
E              F#m           E
ecco l'aria un'ora d'aria un'ora d'aria
F#m              E
un'ora d'aria un'ora d'aria d'aria
F#m              E
un'ora d'aria un'ora d'aria d'aria
F#m              E
un'ora d'aria un'ora d'aria d'aria
F#m              E
un'ora d'aria un'ora d'aria d'aria


Cerco il mio respiro dove soffia il vento
sarň una cosa sola con il mondo intorno
voglio un'ora d'aria un'ora d'aria al giorno
scappare via dal fondo
durante l'ora d'aria





~~~~~~~~~~~~~~~~~~~~~~~~~~~~~~~~~~~~~~~~~~~~~~~~~~~~~~~~~~~~~~~~~~~~~
SUONA FRATELLO
~~~~~~~~~~~~~~~~~~~~~~~~~~~~~~~~~~~~~~~~~~~~~~~~~~~~~~~~~~~~~~~~~~~~~


Am         G          Em         Am
|          |          |          |

Sempre uguale

Suona fratello alla luna piena
perchč la notte č una candela

Guarda sorella la luna piena
perchč l'amore č un'altalena

Canta sorella alla luna piena
perchč la vita č una candela








            
            
Suggest correction
Creating personal tab
Creating personal tab
You can edit any tab online and save it as your Personal.

You can edit, replace or remove any tab part or add personal notes – all changes will be seen only by you.

Personal tabs can be accessed anytime from any device, even offline.
Learn more »
Give kudos to tab author, rate the tab!
1 2 3 4 5
comments
print report bad tab
guest
You may want to rate the tab now too:
select rating
Wanna post a correction for this tab? Suggest correction