Oops, an error
Loading. Please wait.

Univers Bass Tab

769 views 1 this week
no commentswrite comment
1 2 3 4 5
please rate
add to favorites
launch autoscroll
font size
0
reset
guitar tuner
Autoscroll
slow
fast
+/-
esc
set tempo
stop
Help us to improve Ultimate-Guitar.com Take our survey!
×
LITFIBA - UNIVERS
ALBUM: 17 RE (1987)
BASSIST: GIANNI "MAROK" MAROCCOLO

INTRO

E --1-3-------4--|
A ------2--0-----|
D ---------------|
G ---------------|

VERSE

E -1-3----------4-4---|
A -----2-2--0---------|
D --------------------|
G --------------------|

VARIATION

E -1h3-0-----------4-4---|
A --------2-2--0-0-------|
D -----------------------|
G -----------------------|

CHORUS

E --------------------4--4-4-------1h3-0-|
A --2--2-2-0-0--0-4-5--------------------|
D ---------------------------6p7p8-------|
G ---------------------------------------|


E --------------------4--4-4-------1h3-0-|
A --2--2-2-0-0--0-4-5--------------------|
D ---------------------------6p7p8-------|
G ---------------------------------------|


BRIDGE

E --1-3---------------5-5--5--------3-3--3----------------|
A -------1-1-1--1-3-4---------4-5-4--------4-5-4--2-2--2--|
D --------------------------------------------------------|
G --------------------------------------------------------|

E -----5-5--5--------3-3--3----------------|
A -3-4---------4-5-4--------4-5-4--2-2--2--|
D -----------------------------------------|
G -----------------------------------------|

BACK TO THE INTRO+VERSE

AND THEN
OUTRO/CHORUS  'till the end

E --------------------4--4-4-------1h3-0-|
A --2--2-2-0-0--0-4-5--------------------|
D ---------------------------6p7p8-------|
G ---------------------------------------|

JAH WOBBLE IS GOD...
Suggest correction
Give kudos to tab author, rate the tab!
1 2 3 4 5
comments
print report bad tab
guest
You may want to rate the tab now too:
select rating
Wanna post a correction for this tab? Suggest correction