Oops, an error
Loading. Please wait.

Woda Woda tab

by Litfiba
2,262 views 15 this week
no commentswrite comment
1 2 3 4 5
2 more votes to show rating
add to favorites
×
Save as Personal and add changes to this tab that will be seen only by you. Learn more ›
×
You can save this tab as Personal to edit and correct it or add notes. All changes will be seen only by you. Learn more »
launch autoscroll
font size
0
reset
how to read this tab
guitar tuner
edit
Autoscroll
slow
fast
+/-
esc
set tempo
stop
Author
Difficulty
-------------------------------------------------------------------------------
                             WODA WODA - Litfiba
-------------------------------------------------------------------------------
Tabbed by: Federico Vittorio Lupo
E-mail:federicovittoriolupo[at]gmail.com
Tuning:Standard (EADGBe)
Album: El Diablo

If you find an error, please contact me. / Se trovate un errore, contattatemi.
I hope you enjoy! / Spero che vi piaccia!


************************************
| h   hammer-on
| p   pull-off
| b   bending
************************************

Intro

RIFF 1
e|---8-10------------|---8-10-----------------------|
B|-8------10--8----10|-8------10--8h10p8------------|
G|--------------10---|--------------------10-9-7--7-|
D|-------------------|--------------------------10--|
A|-------------------|------------------------------|
E|-------------------|------------------------------|

Woda woda, woda woda
Woda woda, woda woda
Woda woda dalle mani
Scivolata via
Senza odore né colore
L'eco del suo nome
RIFF 2
e|---8-10------------|---8-10-----------------------|
B|-8------10--8----10|-8------10--8h10p8------------|
G|--------------10---|--------------------10-7------|
D|-------------------|------------------------------|
A|-------------------|------------------------------|
E|-------------------|------------------------------|

1000 bocche 1000 mani
Schiave di razza
Aggrappate ad una goccia
Di elemosina

RIFF 3
With distortion/Con distorsione
e|----------------|
B|----------------|
G|----------------|
D|------5-7-8-7---|
A|-5-8------------|
E|----------------|

Non serve pagare

*Repeat Riff 3/Ripeti Riff 3*

La pelle fa male

Ruba ruba l'uomo bianco
Se ne è andato via
Ma san Pietro nel deserto
La sua malattia

*Repeat Riff 3/Ripeti Riff 3*

Non serve guardare

*Repeat Riff 3/Ripeti Riff 3*

La gola di sale

*Repeat Riff 3/Ripeti Riff 3*

No non sei tu a pagare

*Repeat Riff 3/Ripeti Riff 3*

La pelle fa male

*Instr*

RIFF 4
e|-12/--15/--17/---20-22--|
B|------------------------|
G|------------------------|
D|------------------------|
A|------------------------|
E|------------------------|

Woda woda, woda

RIFF 5
e|----------------------------------10--|--------------------------------------|
B|-13----13-12-----13-12--10-12--13-----|---13-13-13-13-12-12-12---------------|
G|--------------------------------------|--------------------------------------|
D|--------------------------------------|--------------------------------------|
A|--------------------------------------|--------------------------------------|
E|--------------------------------------|--------------------------------------|

RIFF 6
e|-10----------------------------------------------|
B|----13-12h13-12-10-8---8h10-8h10-8h10---8-10---8-|
G|--------------------------------------9---------9|
D|-------------------------------------------------|
A|-------------------------------------------------|
E|-------------------------------------------------|

RIFF 7
e|----------------------------------------------------17---15--------|
B|----10-12-10-12-13-13-13---15b17-15-15b17-13-15b17-----------------|
G|-12----------------------------------------------------------------|
D|-------------------------------------------------------------------|
A|-------------------------------------------------------------------|
E|-------------------------------------------------------------------|

RIFF 8
e|----------------|
B|----------------|
G|----------------|
D|------7-9-10-9--|
A|-7-10-----------|
E|----------------|

Non serve pagare

*Repeat Riff 8/Ripeti Riff 8*
La rabbia e la fame

*Repeat Riff 8/Ripeti Riff 8*
Non serve pregare

*Repeat Riff 8/Ripeti Riff 8*
La pelle fa male

  Woda woda silenziosa scivolata via  
e|-----------------------------------|
B|-----------------------------------|
G|-----------------------------------|
D|-9-10-9-10--7-9-7-9-----7----7-----|
A|---------------------10---10----7--|
E|-----------------------------------|

  Woda woda   sei preziosa
e|-----------------------------------|
B|-----------------------------------|
G|-----------------------------------|
D|-9-10-9-10--7-9-7-9-----7----7-----|
A|---------------------10---10----7--|
E|-----------------------------------|

OUTRO*In the outro you can jam a bit/Nell'outro potete improvvisare un po'*
RIFF 9
e|------------------|*2
B|---------10-------|
G|-9-11-12----12-9--|
D|------------------|
A|------------------|
E|------------------|

RIFF 10
e|---------------------15h17p15-15h17p15-15h17p15-15h17p15--15-17-17b19-17-15-12-12b15-----|
B|---------10-12--15-----------------------------------------------------------------------|
G|-9-11-12---------------------------------------------------------------------------------|
D|-----------------------------------------------------------------------------------------|
A|-----------------------------------------------------------------------------------------|
E|-----------------------------------------------------------------------------------------|

RIFF 11
e|-----------------------------|--------------------------|
B|-15-13-12-13--12p10-8-10-12--|--------------------------|
G|-----------------------------|----7-9-/12-11-11-9-9-7/0-|
D|-----------------------------|--------------------------|
A|-----------------------------|--------------------------|
E|-----------------------------|--------------------------|

END/FINE

            
            
Suggest correction
Creating personal tab
Creating personal tab
You can edit any tab online and save it as your Personal.

You can edit, replace or remove any tab part or add personal notes – all changes will be seen only by you.

Personal tabs can be accessed anytime from any device, even offline.
Learn more »
Give kudos to tab author, rate the tab!
1 2 3 4 5
comments
print report bad tab
guest
You may want to rate the tab now too:
select rating
Wanna post a correction for this tab? Suggest correction