Oops, an error
Loading. Please wait.

Why Dont You Do It tab

5,272 views 51 this week
1 commentread comment
1 2 3 4 5
x 9
add to favorites
×
Save as Personal and add changes to this tab that will be seen only by you. Learn more ›
×
You can save this tab as Personal to edit and correct it or add notes. All changes will be seen only by you. Learn more »
launch autoscroll
font size
0
reset
how to read this tab
guitar tuner
edit
Autoscroll
slow
fast
+/-
esc
set tempo
stop
Little Barrie - Why Don’t You Do It
Tuning - Standard

Use thumb for bass notes on E string 


E|--8-----8---------7-----7--------6--8----8/10-|
B|--8-----8---------8-----8--------6--6----6/8--|
G|--9-----9---9-----7-----7--------7--7---------|
D|--10----10--10----9-----9--------8------------|
A|--x-----x-------------------------------------|
E|--8-----8-------------------6-----------------|
                                                                                                            
                                                   r          *
E|------------------------------------------------------------8---|
B|----------10--------8-------6-----------8--------8----------8---|
G|----------------------------------------8--------8--10--8^--9---|
D|------10------10\8-----8\7--------------8--------8----------10--|
A|----------------------------------------x---8-8-------------x---|
E|--10------------------------------6--6--6-------------------8---|

                              [singing starts]

                                             W    *
E|------------12-----8-----------------------7----7------|
B|----------------------10-----------8-------8----8------|
G|-----10/12------------x---8^-------9-------7----7------|
D|--8-------------------10-----------10------9----9------|
A|-----------------------------------x-------------------|
E|----------------8------------8--8--8---8------------8--|


E|---6---8---8/10-----------------------------------|
B|---6---6---6/8-------------10----------8----------|
G|---7---7--------------------------------------10--|
D|---8---------------------------10\8------8\7------|
A|-----------------------12-------------------------|
E|-------------------10-----------------------------|


E|-------------------------------------------------------------|
B|--------8----------10-----------------x--------11------------|
G|--------8----------10-------------5---x--10b12~~~~12--10--8^—|
D|--------8----------10-----------------x----------------------|
A|--------x-----8----8----------3/6-----x----------------------|
E|--6--6--6--6------------0--1----------x----------------------|

          *         W    *
E|--------8---------7----7----------6--8--8/10--|
B|--------8---------8----8----------6--6--6/8---|
G|--------9---------7----7----------7--7--------|
D|--------10--------9----9----------8-----------|
A|--------x-------------------------------------|
E|-8--8---8---8---------------6-----------------|


E|------------------------------------------------------|
B|----------10--------8-------------------8----------8--|
G|----------------------------10----------8----------8--|
D|--------------10\8-----8\7--------------8----------8--|
A|------12--------------------------------x-----8--8----|
E|--10-------------------------------6--6----6----------|

                          
E|--------------x--------------------4---------4--------|
B|--------------x-----x--x--x--x-----4--x-x-x--4--x-x-x-|
G|-----------5--x--5--3--5--x--x-----5--x-x-x--5--x-x-x-|
D|--------------------------x--x-----6--x-x-x--6--x-x-x-|
A|-------3/6-------------------------x--x-x-x--x--x-x-x-|
E|-0--1---------------------------0--4---------4--------|


E|--8------------------------------------------------------------------------------|
B|--8---11b13~~13-12b13~13--12b13~13--11b13r11--8h11p8----8------------------------|
G|--9--------------------------------------------------10---10--8h10--8^-----------|
D|--10--------------------------------------------------------------------10-8-10--|
A|--x------------------------------------------------------------------------------|
E|--8------------------------------------------------------------------------------|

                    W
E|------8---10------7--------------6---8--8/10--|
B|------8---8-------8-----x--------6---6--6/8---|
G|------9---9-------7-----x--------7---7--7/9---|
D|------10--10------9-----x--------8------------|
A|------x---x-------------x---------------------|
E|--8---8---------------------------------------|  

                                                                    *
E|------------------------------------------------------------------8---|
B|-------10-----------8--------6---------8--------------------------8---|
G|---------------------------------------8---------------10---------9---|
D|----10--------10\8------8\7------------8------------10-10---------10--|
A|---------------------------------------x-------10h12-------10-----x---|
E|-10------------------------------6--6-----6-6-----------------11--8---|

                                                W
E|----------12------8-----------------8---------7----7-----|
B|---------------------10-------------8---------8----8-----|
G|-x-10h12--------------x---8^--------9---------7----7-----|
D|-x----------------------------------10--10----9----9-----|
A|---------------x--------------------x--------------------|
E|--------------10--------------8--8--8-----------------6--|


E|---6----8----8/10------------------------------------|
B|---6----6---------------------10-10\8-----8--8\6--6--|
G|---7----7---------------------9--------7-----7\5-----|
D|---8-------------------------------------------------|
A|-----------------------12----------------------------|
E|-------------------10------10------------------------|

                                    
E|----------------------------------0----------------------|
B|--------8------------------4------1--x--x----------------|
G|--------8------------------2------3--x--x--3--5---3^-----|
D|--------8------------1-----3------2--x--x-------5--------|
A|----------------------------------3--x--x-------------6--|
E|--6--6------4/6\--1-----1-----1--------------------------|

                         *
E|--------8---------7----7--------6--8---8/10--|
B|--------8---------8----8--------6--6---------|
G|--------9---------7----7--------7--7---------|
D|--------10--10----9----9--------8------------|
A|--------x------------------------------------|
E|-8--8---8-----------------6------------------|

                                                  
E|--------------------------------------------------------------------|
B|-------------10--10\8-----8------6--------8-------4-----4--------5--|
G|-------------9---------7-----7\5----------8-------------2--------5--|
D|------------------------------------------8-------------3--------5--|
A|-----12----------------------------------------------------------3--|
E|--10-----10--------------------------6--6---6\--1----1------1/3-----|


E|---------------x---------------------------------|
B|--x--x-----4^--x-------------7--x-x-x--7--x-x-x--|
G|--5--3--5------x--x--x-------5--x-x-x--5--x-x-x--|
D|------------------x--x-------6--x-x-x--6--x-x-x--|
A|------------------x--x-------x--x-x-x--x--x-x-x--|
E|------------------x--x----0--4--x-x-x--4--x-x-x--|


E|--8-------------------------------------------------------|
B|--8---11b13--13r11--------------------7---------8---------|
G|--9----------------8^----------x--x---5--x-x-x--8---------|
D|--10-------------------10--10--x--x---6--x-x-x--8---------|
A|--x----------------------------x--x---x--x-x-x--x--x-x-x--|
E|--8----------------------------x--x---4--x-x-x--8--x-x-x--|


E|-----------------------------------------------------------|
B|--8---12b13~13~13--12b13~13--12b13~13--12b13~13--12b13~13--|
G|--9--------------------------------------------------------|
D|--10-------------------------------------------------------|
A|--x--------------------------------------------------------|
E|--8--------------------------------------------------------|


E|----------------------------------------------------------------------|
B|--11b13--11--8h11p8-----------8h11p8----8-----------------8-----------|
G|---------------------8^--------------10^---8h10p8-----10--8h9---------|
D|-------------------------10-----------------------10----------10-8-10-|
A|----------------------------------------------------------------------|
E|----------------------------------------------------------------------|


E|----------------------------------------|
B|----------------------------------------|
G|----------------------------------------|
D|--8------8--------8--10--8--------------|
A|-----10-----8h10------------6^-8--6-----|
E|-------------------------------------8--|

                    W     *
E|------8---10------7-----7--------6---8--8/10--|
B|------8---8-------8-----8--------6---6--6/8---|
G|------9---9-------7-----7--------7------------|
D|------10--10------9-----9---------------------|
A|------x---x-----------------------------------|
E|--8---8---------------------------------------|  


E|-------------------------------------------------------------------8---|
B|--------10---\8--8-------6-------------8---------------------------8---|
G|---------------------------------------8----8------------10-10-----9---|
D|----------------------7----------------8-------------10--10-10-----10--|
A|----12---------------------------------x-------10h12---------------x---|
E|-10------------------------------6--6-----6--------------------11--8---|

                                                     W
E|------------------------------------------8---10---7---7-|
B|---------8--11------8--x------------------8---8----8---8-|
G|--10b12--------10^-----x---8^-------------9---9----7---7-|
D|--x--------------------------10p8---------10--10---9---9-|
A|------------------------------------------x---x----------|
E|------------------------------------8--8--8--------------|


E|---6---8---8/10---10/12\10---8----8--------------|
B|---6---6---6/8-----8/10\8------10---10-----------|
G|---7---7--------------------------------8^-------|
D|---8---------------------------------------10p8--|
A|-------------------------------------------------|
E|-------------------------------------------------|


E|-------------------------------------------------------------------|
B|--------8----------------------------8-----------------------------|
G|--------8-----------------10---------9--------9--------------------|
D|--------8--x-----------10-10---------10---------------10------8/10-|
A|--------x----6---10h12--------10-----x---/10-------10----10\8------|
E|--6--6---------------------------11--8-----------0-----------------|


                  W     *
E|--------8-------7-----7--------6---8--8/10-------------------------|
B|--------8-------8-----8--------6---6--6/8-------10--10\8----8--8\6-|
G|--------9-------7-----7--------7----------------9---------7----7\5-|
D|--------10------9-----9--------------------------------------------|
A|--------x----------------------------------------------------------|
E|--8--8--8-----------------8-----------------10---------------------| 
 

E|------------------------------------------------------------|
B|--------8------------4------1-------x--x----8^--------------|
G|--------8------------2------3-------x--x----8^--------------|
D|--------8------3--3--3------2-------x--x--------10--8--10---|
A|--------x-------------------3-------x--x--------------------|
E|--6--6-------------------1----------------------------------|

        *       W     *
E|------8-------7-----7--------6---8--------------------------------|
B|------8-------8-----8--------6---6----------------10-------8---5--|
G|------9-------7-----7--------7---7--------------------------------|
D|------10------9-----9--------8---------------/10------10\8--------|
A|------x-------------------------------5--5------------------------|
E|--8---8---8--------------8----------------------------------------| 


E|------------------------------0-------x---------------|
B|--------8--------------4------1-------x--x--x--x--4^--|
G|--------8--------------2------3-------x--5--3--5------|
D|--------8--------------3------2-----------------------|
A|--------x---------------------3-----------------------|
E|--6--6-------6\1----1------1--------------------------|


E|--x----------------------------------------------x---------|
B|--x--------7--x-x-x--7--x-x-x--8---11b13--13r11--x--8^-----|
G|--x--x-----5--x-x-x--5--x-x-x--9-----------------x--8^-----|
D|-----x-----6--x-x-x--6--x-x-x--10----------------------10--|
A|-----x-----x--x-x-x--x--x-x-x--x---------------------------|
E|-----x--0--4--x-x-x--4--x-x-x--8---------------------------|


E|---------------------------------------------------------|
B|--------7---------8----------11b13~13--11b13~13--11b13---|
G|--x--x--5--x-x-x--8--x-x-x-------------------------------|
D|--x--x--6--x-x-x--8--x-x-x-------------------------------|
A|--x--x--x--x-x-x--x--x-x-x-------------------------------|
E|--x--x--4--x-x-x--8--x-x-x-------------------------------|








***********************************
| h - hammer on
| p - pull off
| b - bend string
| r - release string
| x - muted string
| / - slide up
| \ - slide down
| r - rake 
| ~ - hold bend
| ^ - slight bend
| * - accent chord/note
| W - whammy bar vibrato                                                  

            
            
Suggest correction
Creating personal tab
Creating personal tab
You can edit any tab online and save it as your Personal.

You can edit, replace or remove any tab part or add personal notes – all changes will be seen only by you.

Personal tabs can be accessed anytime from any device, even offline.
Learn more »
comments
print report bad tab
1 comment total.
0 reply
TonyBalls 10 Apr 30, 2016 11:49 AM

Nice work on tab!
...although bold move to claim the difficulty is "intermediate"

guest
You may want to rate the tab now too:
select rating
Wanna post a correction for this tab? Suggest correction